Hypocrisy - Ressurrected Chords & Tabs

 

Ressurrected Chords & Tabs

Hypocrisy Chords & Tabs

Version: 1 Type: Tab 0 ratings
1 star 2 stars 3 stars 4 stars 5 stars
comments

Ressurrected Tab

   
                             HYPOCRISY - RESURRECTED
                         From the Album - INTO THE ABYSS
                          Copyright: NUCLEAR BLAST 2000
                           Version 1.1 - Jan 18, 2002


Transcribed by: James Williams (Inverted)
Special thanks to David Williams (Warlock)

For Questions, Comments, Newest Version, or Corrections contact
Inverted: at Inverted_one@hotmail.com

Check Out Death8699.com Metaltabs.com or dsrmusic.com for More
Transcriptions:http://www.Death8699.com http://www.Metaltabs.com


 .  - palm mute           /  - slide up to
 \  - slide down to       ~  - vibrato
 h  - hammer on           b  - Bend
 p  - pull off            Suffixes for bend
 t  - tap                 f  - full bend    h - half bend
 ph - pinched harmonic    q  - quarter bend t - tap bend
 *  - see comment         ^  - Hold bend    r release bend
 x  - Stuccatto           ~  - vibrato bend
 ,  - slight palm mute    () - ghost note, sustained note
 "  - tremolo note        <> - Trill

Note* There where a few mistakes in my previous version of this tab.
      This new version should be at least 95accurate. Enjoy!

Tuning: "A"D"G"C"F"A"D"

RESURRECTED...

Riff 1 (Intro)
|---------------------------------------------------------------------|
|---------------------------------------------------------------------|
|---------------------------------------------------------------------|
|--11-11-11-11h12~-11-12-11-10~---11-11-11-11h12~-11-12-11-10~--------|Gtr I
|---------------------------------------------------------------------|
|---------------------------------------------------------------------|
|--------------------------------------------------------------11///--|

|---------------------------------------------------------------------|
|---------------------------------------------------------------------|
|---------------------------------------------------------------------|
|--11-h-12-p-11-h-12-p-11-h-12-p-11-h-12-p11-h-12-p-11-repeat-ect...--|Gtr
II
|---------------------------------------------------------------------|
|---------------------------------------------------------------------|
|---------------------------------------------------------------------|

Riff 2
x2
|---------------------------------------------------------------------------
---|
|---------------------------------------------------------------------------
---|
|---------------------------------------------------------------------------
---|
|---------------------------------------------------------------------------
---|
|--2\4/3x-3x-3x-----2\4/3x-3x-----5-----4---2\4/3x-3x-3x-----2\4/3x-----5---
4--|
|--2\4/3x-3x-3x-----2\4/3x-3x-----5-----4---2\4/3x-3x-3x-----2\4/3x-----3---
2--|
|--0\2/1x-1x-1x-0-0-0\2/1x-1x-0-0-3-0-0-2-0-0\2/1x-1x-1x-0-0-0\2/1x-0-0-3---
2--|
pm              . .           . .   . .   .              . .        . .

Riff 3 (Use a Harmomizer or a Pitch Shifter for)     x2
|------------------------------------------------------| You'll here me
scream
|------------------------------------------------------|     I am the Devil
|---------------------9-------------------------9------|I will control your
mind
|--9~---11--12--11~------12--9~---11--12--11~------12--|      So let me in
|------------------------------------------------------|  You'll feed my
anger
|------------------------------------------------------| A new creation
appears
|------------------------------------------------------|
[ Tab from: http://www.guitartabs.cc/tabs/h/hypocrisy/ressurrected_tab.html ]
Riff 4                                         1st time
|------------------------------------------------------|
|------------------------------------------------------|
|------------------------------------------------------| I am the fallen
angel
|--------------------12-11-----------------------------|     You beware!!!
|--7\9--9h11h12---9--------12---7\9--9h11h12-----------|
|----------------------------------------------12--14--|
|----------------------------------------------10--12--|

                                               2nd time
|------------------------------------------------------|
|------------------------------------------------------|
|------------------------------------------------------|
|--------------------12-11-----------------------------|
|--7\9--9h11h12---9--------12---7\9--9h11h12-----------|
|----------------------------------------------12--11--|
|----------------------------------------------10---9--|


Lead 1                                                         x2
|----------------------------------------------------------------|
|----------------------------------------------------------------|
|----------------------------------------------------------------|
|---------------------9--7-9-11-9-7------------------------------|Gtr I
|--9--7-9-11-9-7--------------------11---9--7-9-11-9-7-----------|
|----------------10------------------------------------10--9--7--|
|----------------------------------------------------------------|

Riff 5 (For Lead 1)                                                  x2
|----------------------------------------------------------------------|
|----------------------------------------------------------------------|
|----------------------------------------------------------------------|
|----------------------------------------------------------------------|Gtr
II
|-------------------9-9-9-9--------------------------------------------|
|--9-9-9-9-9-9-9-9--7-7-7-7--7-7-7-7--9-9-9-9-9-9-9-9--7-------6-------|
|--7-7-7-7-7-7-7-7-----------5-5-5-5--7-7-7-7-7-7-7-7--5-------4-------|

Lead 2                                                                x2
|-----------------------------------------------------------------------|
|-----------------------------------------------------------------------|
|----------------9------------------------------------------------------|
|--9\11----11-12----12-11-9--11-12-11-------11-12-11---9-------9--------|Gtr
I
|-------9--------------------------------9---------------11-12---11-12--|
|-----------------------------------------------------------------------|
|-----------------------------------------------------------------------|

Riff 6 (For Lead 2)                   x4
|---------------------------------------|
|---------------------------------------|
|---------------------------------------|
|---------------------------------------|Gtr II
|------------------------------9-9-7-6--|
|--9-9-9-9--10101010--7-7-7-7--7-7-5-4--|
|--7-7-7-7---8-8-8-8--5-5-5-5-----------|


Riff 7                              x1
|-------------------------------------|---------------------------
|-----------------------------6-6-4-3-|---------------------------
|--6-6-6-6-6-6--7-7--4-4-4-4--4-4-2-1-|-6-6-6-6-6-6--7-7----------
|--4-4-4-4-4-4--5-5--2-2-2-2----------|-4-4-4-4-4-4--5-5----------
|-------------------------------------|---------------------------
|-------------------------------------|-------------------9-9-9-9-
|-------------------------------------|-------------------7-7-7-7-

                           x1                                    x4
 ----------------------------|-------------------------------------|
 ----------------------------|-------------------------------------|
 ----------------------------|-------------------------------------|
 ----------------------------|-------------------------------------|
 ----------------------------|--6-6-6-6-6-6--7-7--4-4-4-4-4-4-4-4--|
 -7-7-7-7--6-6-6-6--4-4-4-4--|--4-4-4-4-4-4--5-5--2-2-2-2-2-2-2-2--|
 -5-5-5-5--4-4-4-4--2-2-2-2--|-------------------------------------|


 Check out my other tabs by Hypocrisy, Grave, Obituary
and Six Feet Under.
Comments