Hypocrisy - Death Row Chords & Tabs

 

Death Row Chords & Tabs

Hypocrisy Chords & Tabs

Version: 1 Type: Tab 0 ratings
1 star 2 stars 3 stars 4 stars 5 stars
comments

Death Row Tab

   
                        HYPOCRISY - DEATH ROW (NO REGRETS)
                         From the Album - INTO THE ABYSS
                          Copyright: NUCLEAR BLAST 2000
                           Version 1.0 - DEC 28, 2001

Transcribed by: James Williams (Inverted)

For Questions, Comments, Newest Version, or Corrections contact
Inverted: at Inverted_one@hotmail.com

Check Out Death8699.com Metaltabs.com or dsrmusic.com for More
Transcriptions:http://www.Death8699.com http://www.Metaltabs.com


 .  - palm mute           /  - slide up to
 \  - slide down to       ~  - vibrato
 h  - hammer on           b  - Bend
 p  - pull off            Suffixes for bend
 t  - tap                 f  - full bend    h - half bend
 ph - pinched harmonic    q  - quarter bend t - tap bend
 *  - see comment         ^  - Hold bend    r release bend
 x  - Stuccatto           ~  - vibrato bend
 ,  - slight palm mute    () - ghost note, sustained note
 "  - tremolo note        <> - Trill

Tuning: "A"D"G"C"F"A"D"

DEATH ROW (NO REGRETS)

Lead 1
|----------------------------------------------------------------------|
|----------------------------------------------------------------------|
|----------------------------------------------------------------------|
|--9\11----9----------------------9\11----9-11--11h12-12h14-12----14---|
|------------12--11h12-11----------------------------------------------|
|----------------------------12----------------------------------------|
|----------------------------------------------------------------------|
[ Tab from: http://www.guitartabs.cc/tabs/h/hypocrisy/death_row_tab.html ]
Riff 1 (Riff for Lead 1)
|-----------------------------------------------------------------------|
|-----------------------------------------------------------------------|
|-----------------------------------------------------------------------|
|-------------------------------------------------------4-4-4-4-4-4-----|
|---------------9-7--4-4-4-4-4-4-------------------9-7--2-2-2-2-2-2-----|
|--9-9-9-9-9-9--7-5--2-2-2-2-2-2--4---9-9-9-9-9-9--7-5---------------4--|
|--7-7-7-7-7-7--------------------2---7-7-7-7-7-7--------------------2--|

Riff 2
|-----------------------------------------------------|
|-----------------------------------------------------|
|-----------------------------------------------------|
|-----------------------------------------------------|
|--7--7--7--6---4--4---------7--7--7--6---9--9--9--9--|
|--5--5--5--4---2--2--4--4---5--5--5--4---7--7--7--7--|
|---------------------2--2----------------------------|

Riff 3
|-----------------------------------------|
|-----------------------------------------|
|-----------------------------------------|
|-----------------------------------------|
|----------9---7--6-----------4--4--6--7--|
|--9---9---7---5--4---4---4---4--4--6--7--|
|--7---7--------------2---2---2--2--4--5--|

Riff 4 (Solo Riff)
|---------------------------------------------|
|---------------------------------------------|
|---------------------------------------------|
|---------------------------------------------|
|---------------------------------------------|
|--4---4----5--7--5----7----4---4----5--7--5--|
|--2---2----3--5--3----5----2---2----3--5--3--|

 Check out my other tabs by Hypocrisy, Grave,
Obituary and Six Feet Under.
Comments