Hybrid Funk - The Bass Player Chords & Tabs

 

The Bass Player Chords & Tabs

Hybrid Funk Chords & Tabs

Version: 1 Type: Bass Tab 0 ratings
1 star 2 stars 3 stars 4 stars 5 stars
comments

The Bass Player Bass Tab

Song:The Bass Player
By:Hybrid Funk

Tabbed by:T4-TURBO

main riff
g:----------------------------|
d:--------4--4-----------4--4-|
a:-----3------3-------3------3|
e:4-4------------4-4----------|
[ Tab from: http://www.guitartabs.cc/tabs/h/hybrid_funk/the_bass_player_btab.html ]
other riff
g:-------------------------------------------------|
d:4--3--2-1-0-4--3--2-1----4--3--2-1----4--3--2-1-5|
a:----------------------3--------------------------|
e:-----------------------------------2-------------|

other,other part with synth
g:--------------------------------|
d:--------------------------------|
a:--------------------------------|
e:--------------------------------|
b:2---5---2---10--8-2--5---2---5-7|

just loop this around un-til your done.
Comments