Husker Du - Celebrated Summer Chords & Tabs

 

Celebrated Summer Chords & Tabs

Husker Du Chords & Tabs

Version: 2 Type: Tab 0 ratings
1 star 2 stars 3 stars 4 stars 5 stars
comments

Celebrated Summer Tab

   
CELEBRATED SUMMER (Bob Mould)

This is an extended and slightly edited version of the excellent Tab 
originally posted by Gary Von Colln - (gary@maple.mc.com)

Corrections to opening riff kindly supplied by Philip Yam.


Intro:

  Guitar:
e:--------------------|--------------|-----------|
B:--3-3-3-3---3-3-3---|--3--3--3--3--|-----------|
G:--4-4-4-4---4-2-0---|--0--0--2--0--|-----0--2--|
D:--------------------|--4--------0--|-----0--2--|
A:--------------------|--------------|--4-----0--|
E:--------------------|--------------|-----------|

 Bass arranged for guitar:
e:--------------------|--------------|-----------|
B:--------------------|--------------|-----------|
G:--------------------|--------------|-----------|
D:--------------------|--------------|-----------|
A:--------------------|-----0--5-----|-----5--0--|
E:--3--3--3--3--3--3--|--3-----------|--3--------|

 Guitar: 
e:--------------------|--------------|-----------|
B:--3-3-3-3---3-3-3---|--3--3--3--3--|-----------|
G:--4-4-4-4---4-2-0---|--0--0--2--0--|-----0--2--|
D:--------------------|--4--------0--|-----0--2--|
A:--------------------|--------------|--4-----0--|
E:--------------------|--------------|-----------|

 Guitar:                                    Asus4 A    Asus4     A
e:--------------------|--------------|---------------|--------------|                                            
B:--3-3-3-3---3-3-3---|--3--3--3--3--|------3---3-2--|-3--3-3--3-2--|
G:--4-4-4-4---4-2-0---|--0--0--2--0--|------2---2-2--|-2--2-2--2-2--|
D:--------------------|--4--------0--|---2--2---2-2--|-2--2-2--2-2--|
A:--------------------|--------------|-4-0-----------|--------------|
E:--------------------|--------------|---------------|--------------|


Verse(Same chords for each verse):


   D                       Csus2                          
e:-----------------------|-----------------------|
B:-3---3---3-3---3---3---|-3---3---3-3---3---3---|
G:-2---2---2-2---2---2---|-0---0---0-0---0---0---|
D:-0---0---0-0---0---0---|-2---2---2-2---2---2---|
A:-----------------------|-3---3---3-3---3---3---|
E:-----------------------|-----------------------|
   Love and hate were      in the air like 

   G                       Asus4 
e:-----------------------|-----------------------|
B:-3---3---3-3---3---3---|-3---3---3-3---3---3---|                          
G:-0---0---0-0---0---0---|-2---2---2-2---2---2---|
D:-0---0---0-0---0---0---|-2---2---2-2---2---2---|
A:-2---2---2-2---2---2---|-0---0---0-0---0---0---|
E:-3---3---3-3---3---3---|-----------------------|
   pollen  from  a         flower

   G/B                   Csus2 
e:-3---3-3---3-3---3-----|-3---3-3---3-3---3-----|
B:-3---3-3---3-3---3-----|-3---3-3---3-3---3-----|
G:-0---0-0---0-0---0-----|-0---0-0---0-0---0-----|
D:-----------------------|-2---2-2---2-2---2-----|
A:-2---2-2---2-2---2-----|-3---3-3---3-3---3-----|
E:-----------------------|-----------------------|

   Em7(Riff)               Asus4
e:-----------------------|-----------------------|
B:-----3-----------------|-----------------------|
G:-----0-----------------|-2---------------------|
D:-----2-----------------|-2---------------------|
A:-----2-----------------|-0---------------------|
E:-0-------0---2---3-----|-----------------------|

   D                       Csus2                          
e:-----------------------|-----------------------|
B:-3---3---3-3---3---3---|-3---3---3-3---3---3---|
G:-2---2---2-2---2---2---|-0---0---0-0---0---0---|
D:-0---0---0-0---0---0---|-2---2---2-2---2---2---|
A:-----------------------|-3---3---3-3---3---3---|
E:-----------------------|-----------------------|
   Sometime in             April time we    

   G                       Asus4 
e:-----------------------|-----------------------|
B:-3---3---3-3---3---3---|-3---3---3-3---3---3---|                          
G:-0---0---0-0---0---0---|-2---2---2-2---2---2---|
D:-0---0---0-0---0---0---|-2---2---2-2---2---2---|
A:-2---2---2-2---2---2---|-0---0---0-0---0---0---|
E:-3---3---3-3---3---3---|-----------------------|
   add another             hour

   G/B                     Csus2 
e:-3---3-3---3-3---3-----|-3---3-3---3-3---3-----|
B:-3---3-3---3-3---3-----|-3---3-3---3-3---3-----|
G:-0---0-0---0-0---0-----|-0---0-0---0-0---0-----|
D:-----------------------|-2---2-2---2-2---2-----|
A:-2---2-2---2-2---2-----|-3---3-3---3-3---3-----|
E:-----------------------|-----------------------|

   Em7(Riff)               Asus4
e:-----------------------|-----------------------|
B:-----3-----------------|-----------------------|
G:-----0-----------------|-2---------------------|
D:-----2-----------------|-2---------------------|
A:-----2-----------------|-0---------------------|
E:-0-------0---2---3-----|-----------------------|


e:--------------------|--------------|-----------|
B:--3-3-3-3---3-3-3---|--3--3--3--3--|-----------|
G:--4-4-4-4---4-2-0---|--0--0--2--0--|-----0--2--|
D:--------------------|--4--------0--|-----0--2--|
A:--------------------|--------------|--4-----0--|
E:--------------------|--------------|-----------|
I guess I better think up a way to spend the time


e:--------------------|--------------|-----------|
B:--3-3-3-3---3-3-3---|--3--3--3--3--|-----------|
G:--4-4-4-4---4-2-0---|--0--0--2--0--|-----0--2--|
D:--------------------|--4--------0--|-----0--2--|
A:--------------------|--------------|--4-----0--|
E:--------------------|--------------|-----------|
Just when I'm ready to sit inside it's summertime


e:--------------------|--------------|-----------|
B:--3-3-3-3---3-3-3---|--3--3--3--3--|-----------|
G:--4-4-4-4---4-2-0---|--0--0--2--0--|-----0--2--|
D:--------------------|--4--------0--|-----0--2--|
A:--------------------|--------------|--4-----0--|
E:--------------------|--------------|-----------|
Should I go fishing or get a friend to hang around

                                            Asus4 A    Asus4     A
e:--------------------|--------------|---------------|--------------|                                            
B:--3-3-3-3---3-3-3---|--3--3--3--3--|------3---3-2--|-3--3-3--3-2--|
G:--4-4-4-4---4-2-0---|--0--0--2--0--|------2---2-2--|-2--2-2--2-2--|
D:--------------------|--4--------0--|---2--2---2-2--|-2--2-2--2-2--|
A:--------------------|--------------|-4-0-----------|--------------|
E:--------------------|--------------|---------------|--------------|
  It's back to summer, back to basics, hang around


Verse 2:


D                  Csus2           G             Asus4
Getting drunk out  on the beach or playing in a  band

B/G                Csus2           Em7(Riff)     Asus4

D             Csus2               G              Asus4
And getting   out of school meant getting out of hand   

B/G                Csus2           Em7(Riff)     Asus4


Chorus (Same chords for each verse):


   G                 D                 Asus4             D/F#  
e:-----------------|-----------------|-----------------|-----------------|
B:-3---3-3---3-3---|-3---3-3---3-3---|-3---3-3---3-3---|-3---3-3---3-3---|
G:-0---0-0---0-0---|-2---2-2---2-2---|-2---2-2---2-2---|-2---2-2---2-2---|
D:-0---0-0---0-0---|-0---0-0---0-0---|-2---2-2---2-2---|-0---0-0---0-0---|
A:-2---2-2---2-2---|-----------------|-0---0-0---0-0---|-----------------|
E:-3---3-3---3-3---|-----------------|-----------------|-2---------------|
   Was this your    celebrated         sum---------------mer

   G                 D                 Em7(Riff)         Asus4  
e:-----------------|-----------------|-----------------|-----------------|
B:-3---3-3---3-3---|-3---3-3---3-3---|-----3-----------|-3---3---3---3---|
G:-0---0-0---0-0---|-2---2-2---2-2---|-----0-----------|-2---2---2---2---|
D:-0---0-0---0-0---|-0---0-0---0-0---|-----2-----------|-2---2---2---2---|
A:-2---2-2---2-2---|-----------------|-----2-----------|-0---0---0---0---|
E:-3---3-3---3-3---|-----------------|-0-------0--2--3-|-----------------|
   Was this your    celebrated         sum---------------mer

   G                 D                 Asus4             D/F#  
e:-----------------|-----------------|-----------------|-----------------|
B:-3---3-3---3-3---|-3---3-3---3-3---|-3---3-3---3-3---|-3---3-3---3-3---|
G:-0---0-0---0-0---|-2---2-2---2-2---|-2---2-2---2-2---|-2---2-2---2-2---|
D:-0---0-0---0-0---|-0---0-0---0-0---|-2---2-2---2-2---|-0---0-0---0-0---|
A:-2---2-2---2-2---|-----------------|-0---0-0---0-0---|-----------------|
E:-3---3-3---3-3---|-----------------|-----------------|-2---------------|
   Was this your    celebrated         sum---------------mer

   G                 D                 Em7(Riff)         Asus4  
e:-----------------|-----------------|-----------------|-----------------|
B:-3---3-3---3-3---|-3---3-3---3-3---|-----3-----------|-3---3---3---3---|
G:-0---0-0---0-0---|-2---2-2---2-2---|-----0-----------|-2---2---2---2---|
D:-0---0-0---0-0---|-0---0-0---0-0---|-----2-----------|-2---2---2---2---|
A:-2---2-2---2-2---|-----------------|-----2-----------|-0---0---0---0---|
E:-3---3-3---3-3---|-----------------|-0-------0--2--3-|-----------------|


    D                 F   G   A         D                 F
e:-----------------|-----------------|-----------------|----------------|
B:--3--------------|--6---8---10-----|--3--------------|--6-------------|
G:--2--------------|--5---7---9------|--2--------------|--5-------------|
D:--0--------------|--0---0---0------|--0--------------|--0-------------|
A:-----------------|-----------------|-----------------|----------------|
E:-----------------|-----------------|-----------------|----------------|

    D                 F   G   A         D                 Csus2       D(hold)
e:-----------------|-----------------|-----------------|-----------|-----------|
B:--3--------------|--6---8---10-----|--3--------------|--3--------|--3--------|
G:--2--------------|--5---7---9------|--2--------------|--0--------|--2--------|
D:--0--------------|--0---0---0------|--0--------------|--2--------|--0--------|
A:-----------------|-----------------|-----------------|--3--------|-----------|
E:-----------------|-----------------|-----------------|-----------|-----------|

    D
e:--------------------------|--------------------------|
B:--3--------3--------3-----|--3--------3--------3-----|
G:-----2--------2--------2--|-----2--------2--------2--| Play
D:--------0--------0--------|--------0--------0--------| twice
A:--------------------------|--------------------------|
E:--------------------------|--------------------------|
[ Tab from: http://www.guitartabs.cc/tabs/h/husker_du/celebrated_summer_tab_ver_2.html ]
     D                          Csus2
e:--------------------------|--------------------------|
B:--3--------3--------3-----|--------3-----------3-----|
G:-----2--------2--------2--|-----------0-----------0--|
D:--------0--------0--------|-----2-----------2--------|
A:--------------------------|--3-----------3-----------|
E:--------------------------|--------------------------|
          When the sun dis -   integrates           be-

     G/B                        Asus4
e:--------------------------|--------------------------|
B:--------3-----------3-----|--------3-----------3-----|
G:-----------0-----------0--|-----------2-----------2--|
D:-----0-----------0--------|-----2-----------2--------|
A:--2-----------2-----------|--0-----------0-----------|
E:--------------------------|--------------------------|
    tween   a   wall    of     clouds

    Bm                          Csus2
e:--------------------------|--------------------------|
B:--------3-----------3-----|--------3-----------3-----|
G:-----------4-----------4--|-----------0-----------0--|
D:-----0-----------0--------|-----2-----------2--------|
A:--2-----------2-----------|--3-----------3-----------|
E:--------------------------|--------------------------|

     Em7                        Asus4
e:--------------------------|--------------------------|
B:--------3-----------------|--------3-----------3-----|
G:--------0-----------------|-----------2-----------2--|
D:--------2--2--------------|-----2-----------2--------|
A:-----2-----2--------------|--0-----------0-----------|
E:--0-----------0--2--3-----|--------------------------|

     D                          Csus2
e:--------------------------|--------------------------|
B:--3--------3--------3-----|--------3-----------3-----|
G:-----2--------2--------2--|-----------0-----------0--|
D:--------0--------0--------|-----2-----------2--------|
A:--------------------------|--3-----------3-----------|
E:--------------------------|--------------------------|
          A summer where I     winter at            and

    G/B                        Asus4
e:--------------------------|--------------------------|
B:--------3-----------3-----|--------3-----------3-----|
G:-----------0-----------0--|-----------2-----------2--|
D:-----0-----------0--------|-----2-----------2--------|
A:--2-----------2-----------|--0-----------0-----------|
E:--------------------------|--------------------------|
    no     one   is     al  -  lowed there

   B5                  C5 
e:-------------------|-------------------|
B:-------------------|-------------------|
G:-4-4-4-4-4-4-4-4---|-5-5-5-5-5-5-5-5---|
D:-4-4-4-4-4-4-4-4---|-5-5-5-5-5-5-5-5---|
A:-2-2-2-2-2-2-2-2---|-3-3-3-3-3-3-3-3---|
E:-------------------|-------------------|

   Em7(Riff)           A       Asus4 
e:-------------------|-------------------|
B:-------------------|-2-2-2---3---3-----|
G:-------------------|-2-2-2---2---2-----|
D:-2---2-------------|-2-2-2---2---2-----|
A:-2---2-------------|-------------------|
E:-0---0---0-2-3-----|-------------------|


Verse 3:


D        Csus2           G              Asus4
Do you remember when the first showfall fell

G/B                Csus2            Em7(Riff)  Asus4

D           Csus2        G                    Asus4
When summer barely had a snowballs chance in hell

G/B                Csus2            Em7(Riff)  Asus4

Chorus:

G             D          Asus4   D/F#
Was this your celebrated sum-----mer
G             D          Em7(Riff)  Asus4
Was this your celebrated sum-----mmer
G             D          Asus4   D/F#
Was this your celebrated sum-----mer

G             D          Em7(Riff)  Asus4

Solo: 

   G                 D                 Asus4             D/F#
e:-----------------|-----------------|-----------------|-----------------|
B:-8---8---8-7-----|-7-8---8---7-----|-5---5---5-5-5---|-7---------------|
G:-7---7---7-7---7-|-7-7---7---7-----|-7---7---7-7-7---|-7---------------|
D:---------------7-|-----------------|-0---0---0-0-0---|-0---------------|
A:-----------------|-----------------|-----------------|-----------------|
E:-----------------|-----------------|-----------------|-----------------|

   G                 D                 Em7               Asus4
e:-----------------|-----------------|-----------------|-----------------|
B:-8---8---8-7-----|-8--8-8---8------|-8--8-8--8-8-8-8-|-----------------|
G:-7---7---7-7-----|-7--7-7---7--7---|-7--7-7--7-7-7-7-|-9---9---9---9---|
D:-----------------|-------------7---|-7--7-7--7-7-7-7-|-7---7---7---7---|
A:-----------------|-----------------|-----------------|-----------------|
E:-----------------|-----------------|-----------------|-----------------|

   G                 D                 Asus4             D/F#
e:-----------------|-----------------|-----------------|-----------------|
B:-8---7----7-7----|-8---8-7---7-7---|-----------------|-----------------|
G:-7---7----9-7----|-7---7-7---9-7---|-7-9---9-9-9-7---|-7---7---9-7-5---|
D:-----------------|-----------------|-0-0---0-0-0-0---|-0---0---0-0-0---|
A:-----------------|-----------------|-----------------|-----------------|
E:-----------------|-----------------|-----------------|-----------------|

   G                 D                 Em7               Asus4
e:-----------------|-----------------|-----------------|-----------------|
B:-8---7----7-7----|-8---8-7---7-7---|-----------------|-----------------|
G:-7---7----9-7----|-7---7-7---9-7---|-7---7---7-7-7-7-|-9---9---9---9---|
D:-----------------|-----------------|-7---7---7-7-7-7-|-7---7---7---7---|
A:-----------------|-----------------|-----------------|-----------------|
E:-----------------|-----------------|-----------------|-----------------|

   G                 D                 Asus4             D/F#
e:-----------------|-----------------|-----------------|-----------------|
B:-7h8-8---10p8--7-|-7h8-8---10p8--7-|-7h8-8---10p8--7-|-7h8-8---10p8--7-|
G:-7---7---7--7--7-|-7---7---7--7--7-|-7---7---7--7--7-|-7---7---7--7--7-|
D:-----------------|-----------------|-----------------|-----------------|
A:-----------------|-----------------|-----------------|-----------------|
E:-----------------|-----------------|-----------------|-----------------|

   G                 D                 Em7               Asus4
e:-----------------|-----------------|-----------------|-----------------------|
B:-7h8-8---10p8--7-|-7-7-7---8---7---|-10--10-10-8-10--|-10-10-10-10--10-10-10-|
G:-7---7---7--7--7-|-7-7-7---7---7---|-7---7--7--7-7---|-7--7--7--7---7--7--7--|
D:-----------------|-----------------|-----------------|-0--0--0--0---0--0--0--|
A:-----------------|-----------------|-----------------|-----------------------|
E:-----------------|-----------------|-----------------|-----------------------|

   G                       D
e:-----------------------|------------------------|
B:-9h10--10--12-10-9--10-|-9h10--10---12-10-9--10-|
G:-9-----9---9--9--11-9--|-9-----9----9--9--11-9--|
D:-----------------------|------------------------|
A:-----------------------|------------------------|
E:-----------------------|------------------------|

   Asus4                   D/F#
e:-----------------------|-12-12-12-12------------|
B:-12-10-9----12-10-9----|-12-12-12-12---12-10-9--|
G:-9--9--9----9--9--9----|-9--9--9--9----9--9--9--|                                                                  
D:-----------------------|------------------------|
A:-----------------------|------------------------|
E:-----------------------|------------------------|

   G                       D
e:-----------------------|------------------------|
B:-9h10---10-10--12-10-9-|-10----10----12-10-9----|
G:-9-9----9--9---9--9--9-|-9-----9-----9--9--9----|
D:-----------------------|------------------------|
A:-----------------------|------------------------|
E:-----------------------|------------------------|

   Em7                     Asus4                    D(hold)
e:-----------------------|------------------------|------------------------|
B:-10----10----12-10-9---|-9h10---10-10---12-10-9-|-3----------------------|
G:-9-----9-----9--9--9---|-9-9----9--9----9--9--9-|-2----------------------|
D:-----------------------|------------------------|-0----------------------|
A:-----------------------|------------------------|------------------------|
E:-----------------------|------------------------|------------------------|

    D
e:--------------------------|--------------------------|
B:--3--------3--------3-----|--3--------3--------3-----|
G:-----2--------2--------2--|-----2--------2--------2--| Play
D:--------0--------0--------|--------0--------0--------| twice
A:--------------------------|--------------------------|
E:--------------------------|--------------------------|

     D                          Csus2
e:--------------------------|--------------------------|
B:--3--------3--------3-----|--------3-----------3-----|
G:-----2--------2--------2--|-----------0-----------0--|
D:--------0--------0--------|-----2-----------2--------|
A:--------------------------|--3-----------3-----------|
E:--------------------------|--------------------------|
          Do      you    re -  member      when  the

     G/B                        Asus4
e:--------------------------|--------------------------|
B:--------3-----------3-----|--------3-----------3-----|
G:-----------0-----------0--|-----------2-----------2--|
D:-----0-----------0--------|-----2-----------2--------|
A:--2-----------2-----------|--0-----------0-----------|
E:--------------------------|--------------------------|
    first       snowfall       fell?

    Bm                          Csus2
e:--------------------------|--------------------------|
B:--------3-----------3-----|--------3-----------3-----|
G:-----------4-----------4--|-----------0-----------0--|
D:-----0-----------0--------|-----2-----------2--------|
A:--2-----------2-----------|--3-----------3-----------|
E:--------------------------|--------------------------|
          Was   that  your     cel  -  e  -  brated 

     Em7                        Asus4                    D(hold)
e:--------------------------|--------------------------|-----------------------|
B:--------3-----------------|--------3-----------3-----|-3---------------------|
G:--------0-----------------|-----------2-----------2--|-2---------------------|
D:--------2--2--------------|-----2-----------2--------|-0---------------------|
A:-----2-----2--------------|--0-----------0-----------|-----------------------|
E:--0-----------0--2--3-----|--------------------------|-----------------------|
    sum------------------------mer


TP.
Comments