Hurt Process - Show Me Your Cards Chords & Tabs

 

Show Me Your Cards Chords & Tabs

Hurt Process Chords & Tabs

Version: 1 Type: Tab 0 ratings
1 star 2 stars 3 stars 4 stars 5 stars
comments

Show Me Your Cards Tab

   
----------------------------------------------------------------------------
Show Me Your Cards - The Hurt Process
----------------------------------------------------------------------------
Tabbed by: Fourways
Email:fourwaystoscreamyourname@hotmail.com

Tuning:CGCFAD

This is my first tab so i hope its right, it's only the rhythm part but the laead part 
be here soon

Intro & Chorus
d|--------------------------------------------------------------------------|
A|--------------------------------------------------------------------------|
F|--------------------------------------------------------------------------|
C|--2--4--11-11-11--0---2-4--11-11-11--0--7---------------------------------|
G|--2--4--11-11-11--0---2-4--11-11-11--0--7---------------------------------|
C|--2--4---9--9--9--0---2-4---9--9--9--0--7---------------------------------|
[ Tab from: http://www.guitartabs.cc/tabs/h/hurt_process/show_me_your_cards_tab.html ]
Verse
d|--------------------------------------------------------------------------|
A|--------------------------------------------------------------------------|
F|--------------------------------------------------------------------------|
C|--2-4--2-4--2-4----2-4--2-4--0-2------------------------------------------|
G|--2-4--2-4--2-4----2-4--2-4--0-2------------------------------------------|
C|--2-4--2-4--2-4----2-4--2-4--0-2------------------------------------------|

Bridge
e|--------------------------------------------------------------------------|
B|--------------------------------------------------------------------------|
G|--9--11--12---------9--11--5-------------------9--11--12------------------|
D|--x---x---x----TO---x---x--x-----ENDING WITH---x---x---x------------------|
A|--7---9--10---------7---9--3-------------------7---9--10------------------|
E|--------------------------------------------------------------------------|


| /  slide up
| \  slide down
| h  hammer-on
| p  pull-off
| ~  vibrato
| +  harmonic
| x  Mute note
============================================================================
Any corrections? Please E-Mail me:fourwaystoscreamyourname@hotmail.com
Comments