Hurt Process - Opinion Chords & Tabs

 

Opinion Chords & Tabs

Hurt Process Chords & Tabs

Version: 1 Type: Tab 0 ratings
1 star 2 stars 3 stars 4 stars 5 stars
comments

Opinion Tab

----------------------------------------------------------------------------
			     The Hurt Process - Opinion
----------------------------------------------------------------------------
Tabbed by: Peter Marriott

Ok so they're not completely finished yet, but i got sick of their being no tabs by them.
They're a great English rock band who are finally starting to become more well known,
they have an album out called Drive By Monologue, Buy It! I will figure out the rest of
it but for now, here's the stuff i know.

Tuning: Drop D

Both Guitars
e|----------------------------------|
B|----------------------------------|
G|--77-77-55-55-22-44-22-44---------|
D|--77-77-55-55-22-44-22-44---------|X4
A|--55-55-33-33-00-22-00-22---------|
D|----------------------------------|
[ Tab from: http://www.guitartabs.cc/tabs/h/hurt_process/opinion_tab.html ]
Both Guitars
e|----------------------------------|
B|----------------------------------|
G|----------------------------------|
D|--4-4-400---444400----------------|X3
A|--4-4-400---444400----------------|
D|--4-4-400---444400----------------|

Both Gutars
e|----------------------------------|
B|----------------------------------|
G|----------------------------------|
D|--4-4-400---77777777--------------|X1
A|--4-4-400---77777777--------------|
D|--4-4-400---77777777--------------|

Both Guitars
e|----------------------------------|
B|----------------------------------|
G|------------11-11-11-11-12-12-12--|
D|--4-4-400---x--x--x--x--x--x--x---|X8
A|--4-4-400---9--9--9--9--10-10-10--|
D|--4-4-400-------------------------|

Guitar 1
e|----------------------------------|
B|----------------------------------|
G|----------------------------------|
D|--00000000--0-0-0-04--------------|X8
A|--00000000--0-0-0-04--------------|
D|--00000000--0-0-0-04--------------|
    ........  . . . .

Guitar 2
e|----------------------------------|
B|----------------------------------|
G|-------------------11-------------|
D|--00000000--0-0-0-0x--------------|X8
A|--00000000--0-0-0-09--------------|
D|--00000000--0-0-0-0---------------|
    ........  . . . .
Comments