Hurriganes - Roadrunner Chords & Tabs

 

Roadrunner Chords & Tabs

Hurriganes Chords & Tabs

Version: 5 Type: Tab 0 ratings
1 star 2 stars 3 stars 4 stars 5 stars
comments

Roadrunner Tab

#----------------------------------PLEASE NOTE--------------------------------#
#This file is the author's own work and represents their interpretation of the#
#song. You may only use this file for private study, scholarship, or research.#
#-----------------------------------------------------------------------------#
#-- File created with Instab - http://www.pconline.com/~smcarey/instab.html --#
#-----------------------------------------------------------------------------#

Author/Artist: The Hurriganes
Title: Roadrunner
Album: Roadrunner
Transcribed by: Henri Jaatinen
Email: jatsci_83@hotmail.com

These are the original tabulatures by Henry Aaltonen, Ile Kallio, Albert J?rvine
n and Cisse H?kkinen.
Tabbed from original (!) notebooks of composers.
Propably the greatest rock song ever in the history of Finnish rock.
Album "Roadrunner" sold double-platinum.

------------------------------------------------------------------------------|
------------------------------------------------------------------------------|
------------------------------------------------------------------------------|
-----------------2------------------------------------------------------------|
---0-0-----2-2-4-------0-1-2--------------------------------------------------|
-------3-4--------------------------------------------------------------------|

[ Tab from: http://www.guitartabs.cc/tabs/h/hurriganes/roadrunner_tab_ver_5.html ]
------------------------------------------------------------------------------|
------------------------------------------------------------------------------|
------------------------------------------------------------------------------|
-----------------2------------------2------------------2------------------2---|
-----------2-2-4--------------2-2-4--------------2-2-4--------------2-2-4-----|
---0-0-3-4------------0-0-3-4------------0-0-3-4------------0-0-3-4-----------|


------------------------------------------------------------------------------|
------------------------------------------------------------------------------|
-----------------2------------------2-----------------------------------------|
-----------2-2-4--------------2-2-4--------------------2------------------2---|
---0-0-3-4------------0-0-3-4--------------------2-2-4--------------2-2-4-----|
-----------------------------------------0-0-3-4------------0-0-3-4-----------|


------------------------------------------------------------------------------|
------------------------------------------------------------------------------|
------------------------------------2-----------------------------------------|
-----------4-4-6-4------------2-2-4--------------------2----------------------|
-------5-6----------------3-4--------------------2-2-4-------0-1-2------------|
---7-7----------------5-5----------------0-0-3-4------------------------------|
Comments