Hurriganes - Roadrunner Chords & Tabs

 

Roadrunner Chords & Tabs

Hurriganes Chords & Tabs

Version: 2 Type: Tab 0 ratings
1 star 2 stars 3 stars 4 stars 5 stars
comments

Roadrunner Tab

-------------------------------------------------------------------------------
			     SONG NAME - Band Name
-------------------------------------------------------------------------------
Tabbed by: Jorma
Email: -

Tuning: standard

Intro
e|--------------------------------|
B|--------------------------------|
G|--------------------------------|
D|---------------------2----------|
A|---------------2-2-4---0-1-2----|
E|-5-5-5-0-0-3-4------------------|

Riff
e|-------------------------------------------------------------------------|
B|-------------------------------------------------------------------------|
G|-------------------------------------------------------------------------|
D|---------------2---------------2-----------2-----------2-----------------|
A|---------2-2-4-----------2-2-4-------2-2-4-------2-2-4-------------------|
E|-0-0-3-4---------0-0-3-4---------0-0---------0-0-------------------------|

e|-------------------------------------------------------------------------|
B|-------------------------------------------------------------------------|
G|-------------------------------------------------------------------------|
D|---------2-2--------------2-2-------------------2-----------2------------|
A|-0-0-3-4-----3-4--0-0-3-4-----3-4---------2-2-4-------2-2-4--------------|
E|----------------------------------0-0-3-4---------0-0--------------------|

e|-------------------------------------------------------------------------|
B|-------------------------------------------------------------------------|
G|-------------------------------------------------------------------------|
D|-4-4-4--4--3--2------------------------2---------------------------------|
A|-2-2-2--2--1--0------------------2-2-4---0-1-2---------------------------|
E|------------------3p0-3--0-0-3-4-----------------------------------------|


The part with scratching with pick:     ///=scratch
e|-------------------------------------------------------------------------|
B|-------------------------------------------------------------------------|
G|-------------------------------------------------------------------------|
D|-----------------------------------------------------2-2-----------------|
A|---------2-2-------------------2-2-----------0-0-3-4-----3-4-0-----------|
E|-0-0-3-4-----3-4-0-///-0-0-3-4-----3-4-0-///-------------------///-------|

e|-------------------------------------------------------------------------|
B|-------------------------------------------------------------------------|
G|-------------------------------------------------------------------------|
D|-----------------------4-4-4-4-4-4-3-3-2-------------------2-------------|
A|---------2-2-----------2-2-2-2-2-2-1-1-0-------------2-2-4---0-1-2-------|
E|-0-0-3-4-----3-4-0-///-------------------///-0-0-3-2---------------------|

solo
e|-------------------------------------------------------------------------|
B|----------------3--------------------------------------------------------|
G|-2-3-4--4-2-3-4---4-4s2s4-4-2-4-2-4-4-4s2s4-4-2-4-----4p2---2------------|
D|----------------------------------------------------------5---2~---------|
A|-------------------------------------------------------------------------|
E|-------------------------------------------------------------------------|
[ Tab from: http://www.guitartabs.cc/tabs/h/hurriganes/roadrunner_tab_ver_2.html ]
e|-------------------------------------------------------------------------|
B|-----------8------------------8--------8---10p8---10b12------------------|
G|-2---2--7/9------9-7h9--9h7h9---9~---9---9------9------------------------|
D|---5---------------------------------------------------------------------|
A|-------------------------------------------------------------------------|
E|-------------------------------------------------------------------------|

e|----------10b12-10----10-12b14~------------------------------------------|
B|-12p10h12----------12------------10-8--------10---10-8---10-8------------|
G|--------------------------------------9qb-------8------8------8-4~-------|
D|------------------------------------------9~-----------------------------|
A|-------------------------------------------------------------------------|
E|-------------------------------------------------------------------------|

Next using the same scratching pattern, but instead of scratching play next:

        Use tremolo bar
1.  |----------------------|
e|--------------------------------|
B|--------------------------------|
G|--------------------------------|
D|--------------------------------|
A|--------------------------------|
E|-0\\--------------------------|

2.
e|--------------------------------|
B|--------------------------------|
G|-3h5b6~--3h5p3~-----------------|
D|--------------------------------|
A|--------------------------------|
E|--------------------------------|

          tremolo bar
3.    |------------------|
e|--------------------------------|
B|--------------------------------|
G|-(3)//////////--------|
D|--------------------------------|
A|--------------------------------|
E|--------------------------------|

4.
e|--------------------------------|
B|--------------------------------|
G|-5h7h8b9--5h7p5~----------------|
D|--------------------------------|
A|--------------------------------|
E|--------------------------------|

5.
e|--------------------------------|
B|-3h5h6b7---5p3~~~---------------|
G|---------------------2-3-4------|
D|--------------------------------|
A|--------------------------------|
E|--------------------------------|

Solo 2.
e|-------------------------------------------------------------------------|
B|---8----------12------------8----------12--------------------------------|
G|-9---9p7-9-------7-9----7h9---9----7h9----7h9----------------------------|
D|-------------------------------------------------------------------------|
A|-------------------------------------------------------------------------|
E|-------------------------------------------------------------------------|

e|-------------------------------------------------------------------------|
B|-----8--------8~-----10p8---8-10b12-(12)-(12)-(12)-12r10p8---------------|
G|-7-9---9p7-9-------9------9--------------------------------9-9~----------|
D|-------------------------------------------------------------------------|
A|-------------------------------------------------------------------------|
E|-------------------------------------------------------------------------|
				tremolo bar
e|---------12----12--12p10----10----/------10-----------------------------|
B|-8-10-12----12-----------12------------------12-10-----------------------|
G|---------------------------------------------------9~--------------------|
D|-------------------------------------------------------------------------|
A|-------------------------------------------------------------------------|
E|-------------------------------------------------------------------------|




===============================================================================
Comments