Hurriganes - My Only One Chords & Tabs

 

My Only One Chords & Tabs

Hurriganes Chords & Tabs

Version: 2 Type: Bass Tab 0 ratings
1 star 2 stars 3 stars 4 stars 5 stars
comments

My Only One Bass Tab

   
My Only One
As Preformed By The Hurriganes
TablEdited by Jan.Bjorklund
Tuning : E A D G 	Time Signature: 4/4

intro & verse
  |       |       |       |          |       |       |       |         
||---------------------------------|----------------------------------|
|*---------------------------------|----------------------------------|
||3-----------3-----------3--------|-0-----------0-----------0--------|
||----------------------------3----|-----------------------------0----|

  |       |       |       |        >1|       |       |       |         
|---------------------------------||---------------------------------||
|---------------------------------||---------------------------------*|
|---------------------------------||---------------------------------||
|-1-----------1-----------0---1---||-3-----------3-----------0---1---||

  |       |       |       |          |       |       |       |         
|----------------------------------|----------------------------------|
|----------------------------------|----------------------------------|
|----------------------------------|----------------------------------|
|-3---3---3---3---3---3---3---3----|-3--------------------------------|
[ Tab from: http://www.guitartabs.cc/tabs/h/hurriganes/my_only_one_btab_ver_2.html ]
chorus
  |       |       |       |          |       |       |       |         
|----------------------------------|----------------------------------|
|-------------------------5--------|-------------------------5--------|
|-------------7--------------------|-------------7--------------------|
|-8--------------------------------|-8--------------------------------|

  |       |       |       |          |       |       |       |         
|----------------------------------|----------------------------------|
|-------------------------2--------|-------------------------2--------|
|-------------3--------------------|-------------3--------------------|
|-5--------------------------------|-5--------------------------------|

  |       |       |       |          |       |       |       |         
|----------------------------------|----------------------------------|
|----------------------------------|----------------------------------|
|-------------0-----------3--------|-------------0-----------3--------|
|-1--------------------------------|-1--------------------------------|

  |       |       |       |         
|----------------------------------|
|----------------------------------|
|----------------------------------|
|-3---3---3---3---3---3---3---3----|


Created with TablEdit http://www.tabledit.com/

Comments