Hunters And Collectors - True Believers Chords & Tabs

 

True Believers Chords & Tabs

Hunters And Collectors Chords & Tabs

Version: 1 Type: Tab 0 ratings
1 star 2 stars 3 stars 4 stars 5 stars
comments

True Believers Tab

   
HUNTERS AND COLLECTORS
TRUE BELIEVERS
Tabbed by James Greig

INTRO (trumpet, with some sort of filter,
  transcribed for guitar)

e|-------------------------------------------|
B|-9-9-9--9-9-7-7-7-7-5-5--5-5--5-5-5--5-5---|
G|-------------------------------------------|
D|-------------------------------------------|
A|-------------------------------------------|
E|-------------------------------------------|

MAIN & VERSE RIFF
Use downstrokes
	E			F
e|-----------------------------------|
B|-----------------------------------|
G|-1-1-1-1-1-1-1-1-3-3-3-3-3-3-3-3---|
D|-2-2-2-2-2-2-2-2-4-4-4-4-4-4-4-4---|
A|-2-2-2-2-2-2-2-2-4-4-4-4-4-4-4-4---|
E|-0-0-0-0-0-0-0-0-2-2-2-2-2-2-2-2---|
	A		B
e|-----------------------------------|
B|-----------------------------------|
G|-6-6-6-6-6-6-6-6-6-6-6-6-6-6-8-8---|
D|-7-7-7-7-7-7-7-7-7-7-7-7-7-7-9-9---|
A|-7-7-7-7-7-7-7-7-7-7-7-7-7-7-9-9---|
E|-5-5-5-5-5-5-5-5-5-5-5-5-5-5-7-7---|
	E			F
e|-----------------------------------|
B|-----------------------------------|
G|-1-1-1-1-1-1-1-1-3-3-3-3-3-3-3-3---|
D|-2-2-2-2-2-2-2-2-4-4-4-4-4-4-4-4---|
A|-2-2-2-2-2-2-2-2-4-4-4-4-4-4-4-4---|
E|-0-0-0-0-0-0-0-0-2-2-2-2-2-2-2-2---|
	A			E
e|-----------------------------0-0---|
B|---------------------------0-0-0---|
G|-6-6-6-6-6-6-6-6-1-1-1-1-1-1-1-1---|
D|-7-7-7-7-7-7-7-7-2-2-2-2-2-2-2-2---|
A|-7-7-7-7-7-7-7-7-2-2-2-2-2-2-2-2---|
E|-5-5-5-5-5-5-5-5-0-0-0-0-0-0-0-0---|

CHORUS
[ Tab from: http://www.guitartabs.cc/tabs/h/hunters_and_collectors/true_believers_tab.html ]
The chorus is the same chord 
progression as the verse, 
except you should play the 
full bar chords and strum it.
E, F, A, B, E, F, A, E
Listen to the CD for the rhythm 

OUTRO
Also the same chord progression.

LYRICS

I know your face, I've seen it before
A faded memory, a voice through the door
Tell me your name - are you friend or foe?
A star-crossed lover with nowhere to go

True believer you're an open book
The stalls are empty everywhere you look
So long to a night well spent
You can't remember where the money all went

You only did it for the good times
One of the true believers
I know the pleasure that you live for
Must be the last of the self-deceivers

Let's go dancing in our Sunday clothes
Let's raise a glass to the life we chose
Can't believe after all these years
You're still laughing - it brings me to tears

Sinking slowly - the champagne flowed
I was a child up until you showed
Don't be ashamed - let there be no regrets
For the nights of madness we can't forget

You only did it for the good times
One of the true believers
I know the pleasure that you live for
Must be the last of the self-deceivers

Tell me your name - I'll keep you in mind
A true heart is the hardest to find
I know your face - I've seen it before
A faded memory at the nightclub door

You only did it for the good times
One of the true believers
I know the pleasure that you live for
Must be the last of the self-deceivers

You only did it for the good times
One of the true believers
I know the pleasure that you live for
Must be the last of the self-deceivers

True Believers

True Believers

True Believers
Comments