Hunters And Collectors - Inside A Fireball Chords & Tabs

 

Inside A Fireball Chords & Tabs

Hunters And Collectors Chords & Tabs

Version: 1 Type: Tab 0 ratings
1 star 2 stars 3 stars 4 stars 5 stars
comments

Inside A Fireball Tab

   
Hunters and Collectors
Inside A Fireball
Tabbed by James Greig

NOTE: this tab is based on the live version of the song from "Under One Roof"

The song starts off with a tom roll on the drums and then this bass line,
which is the bass line for the verses.

G|---------------------------|
D|---------------------------|
A|---------------------------|
E|--0-00-00-00-00-22-33-22---|

Just before the guitar part comes in, there is a quick bend, and then the main
guitar riff for the verses comes in
			E min
e|--------|   e|-0--0-0--0--0-0--0--0---|
B|--------|   B|-0--0-0--0--0-0--0--0---|
G|--------|   G|-0--0-0--0--0-0--0--0---|
D|-6^8r6--|   D|-2--2-2--2--2-2--2--2---|
A|--------|   A|-2--2-2--2--2-2--2--2---|
E|--------|   E|-0--0-0--0--0-0--0--0---|

	D			G
e|-2-2--2-2-2--2--3-3--3-3-3--3--|
B|-3-3--3-3-3--3--0-0--0-0-0--0--|
G|-2-2--2-2-2--2--0-0--0-0-0--0--|
D|-0-0--0-0-0--0--0-0--0-0-0--0--|
A|----------------2-2--2-2-2--2--|
E|----------------3-3--3-3-3--3--|

VERSE: at the end of a line play the E min with staccato
Then the main riff will come in and just before the chorus end on the E min.

e|--0---0-0---|
B|--0---0-0---|
G|--0---0-0---|
D|--2---2-2---|
A|--2---2-2---|
E|--0---0-0---|

CHORUS 1 ("Inside a fireball")

	B min
e|--7-7--7-7-7--7--7--7-7--7--7---|
B|--7-7--7-7-7--7--7--7-7--7--7---|
G|--7-7--7-7-7--7--7--7-7--7--7---|
D|--9-9--9-9-9--9--9--9-9--9--9---|
A|--9-9--9-9-9--9--9--9-9--9--9---|
E|--7-7--7-7-7--7--7--7-7--7--7---|

	D min		C	D min
e|--5-5--5-5--5--5--3--5-5--5--5--|
B|--6-6--6-6--6--6--5--6-6--6--6--|
G|--7-7--7-7--7--7--5--7-7--7--7--|
D|--7-7--7-7--7--7--5--7-7--7--7--|
A|--5-5--5-5--5--5--3--5-5--5--5--|
E|--------------------------------|

CHORUS 2 ("we, we will not die")

This is the bass line which is played by the bass and keyboards

G|-------------------------|
D|-------------------------|
A|-------------------------|
E|-0-0-2-3--0-2-3--3-333-2-|
[ Tab from: http://www.guitartabs.cc/tabs/h/hunters_and_collectors/inside_a_fireball_tab.html ]
After Mark sings ".. the very last time.. time!" the two guitars come in with
this riff for four measures. They are joined by the trumpet and trombone after two measures.

e|---------------------------------|
B|---------------------------------|
G|---------------------------------|
D|---------------------------------|
A|-7-7-9-10--7-9-10--10-101010-9---|
E|---------------------------------|

After that Barry plays a solo along the lines of this.

e|--12-12-14^15r14--14^15-14^15r14-12--12---|
B|------------------------------------------|
G|------------------------------------------|
D|------------------------------------------|
A|------------------------------------------|
E|------------------------------------------|

END NOTE

e|------|
B|------|
G|--0---|
D|--2---|
A|--2---|
E|--0---|
LYRICS
Hey everybody - can't you hear me call?
I'm standing in a the street inside a fireball
Tomorrow's in the future - death is in the cradle
We're all chin-wagging 'round the breakfast table
Down Main Street with the dust in my lungs
The blisters on my shoulder - the end has just begun
I'm swimming in the heat when the rads his my tongue
The remnants of my children are having too much fun
Inside a fireball
Inside a fireball
There's a big copper digger in the middle of town
The birds are on his head - the rags are hanging down
The grip on the grenade in his broken hand
As loose as the union's on the hot red sand
Inside a fireball
Inside a fireball
"We will not die and it is no crime
Ya take the whole world upon ya shoulder
For the very last time"
Well I blasted my way through the barrier range
I ripped up the ground but nothing has changed
Bromide, sulphide, oxide, slag
We're cleaning out the can with an oily rag
I'll live on the dole or I'll die in the dust
If they turn up the shift then strike we must
The company's here but the money's all gone
But I'm still digging, I'm still strong!
Inside a fireball
Inside a fireball
We, we will not die
And it is, it is no crime
You take the whole world upon your shoulders
For the very last, for the very last time
Ooh

Comments, suggestions or corrections?
greigfam@tac.com.au
Comments