Hunters And Collectors - Holy Grail Chords & Tabs

 

Holy Grail Chords & Tabs

Hunters And Collectors Chords & Tabs

Version: 3 Type: Tab 0 ratings
1 star 2 stars 3 stars 4 stars 5 stars
comments

Holy Grail Tab

Band:Hunters and collectors
Title: Holy Grail (intro)


this is only the intro for the song. It sounds right when i play it
so i hope its good.

The intro is played on piano but you can play it like this

[ Tab from: http://www.guitartabs.cc/tabs/h/hunters_and_collectors/holy_grail_tab_ver_3.html ]
--------------------------|
--------------------------|
------4-2-1---------------|
---2--------4-2-2-2-4-----|
-2------------------------|
--------------------------|
then it goes into this

---------------------------------|
---------------------------------|
---------------------------------|
-9-9-----------------------------|
-7-7--7-7-7-7-11-11--7-7-7-7-----|
------5-5-5-5--9--9--5-5-5-5-----|

listen to the song to get the timing for it
that sounds right when i play it.
enjoy

matt
Comments