Hunters And Collectors - Holy Grail Chords & Tabs

 

Holy Grail Chords & Tabs

Hunters And Collectors Chords & Tabs

Version: 2 Type: Tab 0 ratings
1 star 2 stars 3 stars 4 stars 5 stars
comments

Holy Grail Tab

   
Hunters and collectors - Holy Grail
Full lyrics at the end of the page

**Im sure this is 99% right but the chord with the ** next 
to it im not sure if its a B or a G#m. 
Im only 14 and this is my first tab so plz mail me and
tell me what you think


I suggest you play this bit on a piano but
this is how you do it on guitar
E---------------------|---------------------| |-x--x-|
B---------------------|---------------------| |-x--x-|
G-------------4-2-1---|---------------------| |-x--x-|
D---------2---------4-|-2--2--2--22-4-------| |-x--x-|
A-----2---------------|-------------let-ring| |-x--x-|
E---------------------|---------------------| |-x--x-|
                                         "Hit with fist"

E----------------------|----------------------| 
B----------------------|----------------------|   (X2) 
G----------------------|-4--4-----------------| "Dont play  
D-2--2-x-x--x-7--7--xx-|-6--6--xxxx--9--9---xx| last two
A-2--2-x-x--x-7--7--xx-|-6--6--xxxx--9--9---xx| mutes 2nd
E-0--0-x-x--x-5--5--xx-|-------xxxx--7--7---xx| time"
                                    |^|^|^|
                                  ("Dont play 2,4,4 
                           starting on A string!!!")

  E     A           C#m    B

E-0-----5----------|-4-----7------------|  
B-0-----5----------|-5-----7------------|   (X3)
G-1-----6----------|-6-----8------------|
D-2-----7----------|-6-----9------------|
A-2-----7----------|-4-----9------------|
E-0-----5----------|-4-----7------------|
 (1.woke up this morning..)
 (2.I was in the biggest..)
 (3.And we were marching..)
 
 Let all notes ring throughout the whole
 bar chord part ... this is where the singing is
 then you ues the power chords to get the heavy
 chunky sound when there is no singing

E----------------------|----------------------| 
B----------------------|----------------------|  
G----------------------|-4--4-----------------|  
D-2--2-x-x--x-7--7--xx-|-6--6--xxxx--9--9-----| 
A-2--2-x-x--x-7--7--xx-|-6--6--xxxx--9--9-----| 
E-0--0-x-x--x-5--5--xx-|-------xxxx--7--7-----|

  E     A           C#m    B

E-0-----5----------|-4-----7------------|  
B-0-----5----------|-5-----7------------|   (X3)
G-1-----6----------|-6-----8------------|
D-2-----7----------|-6-----9------------|
A-2-----7----------|-4-----9------------|
E-0-----5----------|-4-----7------------|
 (1.Started out seeking......)
 (2.It's a short song but....)
 (3.When you spend lifetime..)

E----------------------|----------------------| 
B----------------------|----------------------|  
G----------------------|-4--4-----------------|  
D-2--2-x-x--x-7--7--xx-|-6--6--xxxx--9--9-----| 
A-2--2-x-x--x-7--7--xx-|-6--6--xxxx--9--9-----| 
E-0--0-x-x--x-5--5--xx-|-------xxxx--7--7-----|

  A                C#m    B
                                        ________
E-5---------------|-4-----7------------|        \  
B-5---------------|-5-----7------------|   (X3)  \
G-6---------------|-6-----8------------|          \
D-7---------------|-6-----9------------|           \  
A-7---------------|-4-----9------------|            \
E-5---------------|-4-----7------------|             \  Play X3
 Let ring           Timeing with trumpet              \
 (1.but have you heard....)                            \ (2.all the 
 (2.We ran into millions..)                             \ locals
 (3.Yeah we raised four...)                              \ scattered) 
                                                         / 
E-----------------------|----------------------|        / (3.we were 
B-----------------------|----------------------|  (X2) / full of...) 
G-----------------------|-4--4-----------------|      /
D-2--2--xxxx---7--7--xx-|-6--6--xxxx--9--9-----|     /
A-2--2--xxxx---7--7--xx-|-6--6--xxxx--9--9-----|    /
E-0--0--xxxx---5--5--xx-|-------xxxx--7--7-----|   /
                                                  /
(2nd time and 3rd time time play once only!!)____/


(Bit softer here to let the trumpet come through!!!!)
(HARD and chunky but still claen second time through)

  E                 G#m
[ Tab from: http://www.guitartabs.cc/tabs/h/hunters_and_collectors/holy_grail_tab_ver_2.html ]
E-0---------------|-4-----------------| \
B-0---------------|-4-----------------|  \
G-1---------------|-4-----------------|   \
D-2---------------|-6-----------------|    \
A-2---------------|-6-----------------|     \
E-0---------------|-4-----------------|      \
 (1.Ive been...     searchin for.....)        \
 (2.day             high and ........)         \
  C#m                       B**                 } Play X2
                                               / 
E-4---------------|---------7---------|       /
B-5---------------|---------7---------|      /
G-6---------------|---------8---------|     /
D-6---------------|---------9---------|    /
A-4---------------|---------9---------|   /
E-4---------------|---------7---------|  /
 (way .......to es-cape the..........)
 (low......        got nowhere.......)


This is the realy nice trumpet solo bit
        so play softly again

  E                  C#m        A  

E-0----------------|-4----------5-------|
B-0----------------|-5----------5-------|
G-1----------------|-6----------6-------| (X3)
D-2----------------|-6----------7-------|
A-2----------------|-4----------7-------|
E-0----------------|-4----------5-------|

  C#m                A          B

E-4----------------|-5----------7-------|
B-5----------------|-5----------7-------|
G-6----------------|-6----------8-------|
D-6----------------|-7----------9-------|
A-4----------------|-7----------9-------|
E-4----------------|-5----------7-------|


 (this bit is where the piano intro plays over the 
 guitar so play soft as here but still make the 
 mutes chunk)

E---------------------|----------------------| 
B---------------------|----------------------|  
G---------------------|-4--4-----------------| (X2)  
D-2--2--xxxx--7-7--xx-|-6--6--xxxx--9--9-----| 
A-2--2--xxxx--7-7--xx-|-6--6--xxxx--9--9-----| 
E-0--0--xxxx--5-5--xx-|-------xxxx--7--7-----|
 

  A                C#m    B
                                        
E-5---------------|-4-----7------------|  
B-5---------------|-5-----7------------|
G-6---------------|-6-----8------------|
D-7---------------|-6-----9------------|  
A-7---------------|-4-----9------------|         
E-5---------------|-4-----7------------|
 

E-----------------------|----------------------|     
B-----------------------|----------------------|  
G-----------------------|-4--4-----------------|      
D-2--2--xxxx---7--7--xx-|-6--6--xxxx--9--9-----|     
A-2--2--xxxx---7--7--xx-|-6--6--xxxx--9--9-----|    
E-0--0--xxxx---5--5--xx-|-------xxxx--7--7-----|

OUTRO

E|:-----------------------|----------------------:|     
B|:-----------------------|----------------------:|  
G|:-----------------------|-4--4-----------------:|      
D|:-2--2--xxxx---7--7--xx-|-6--6--xxxx--9--9-----:|     
A|:-2--2--xxxx---7--7--xx-|-6--6--xxxx--9--9-----:|    
E|:-0--0--xxxx---5--5--xx-|-------xxxx--7--7-----:|
 
Repeat over and over while the piano plays and
breadually get softer and softer and softer
DONE (HAVE FUN!!)

**Im sure this is 99% right but the chord with the ** next 
to it im not sure if its a B or a G#m. 
Im only 14 and this is my first tab so plz mail me and
tell me what you think

Oh, so high
 
Woke up this morning from the strangest dream 
I was in the biggest army the world has ever seen
We were marching as one
On the road to the holy grail 
 

Started out seeking fortune and glory 
It's a short song but a hell of a story
When you spend lifetime trying to get your hands
On the holy grail 
 

We'll have you heard about the great crusade 
We ran into millions, but nobody got paid
Yeah we raised four corners of the globe
For the holy grail 
 

All the locals scattered, they were hiding in the snow 
We were so far home, so how were we to know
There be nothing left to plunder
When we stumble on the holy grail
  

We were full of beans 
But we were dying like flies
And those big black birds, they were circling in the sky
And you know what they say, yeah, nobody deserves to die 
 

You know I, I've been searching for an easy way 
To escape the cold light of day
I've been high and I've been low
But I've nowhere else to go
  

There's nowhere else to go 
  

And I've followed orders 
God knows where I've been
But I woke up alone
All my wounds were clean
I'm still here
I'm still a fool for the holy grail 
 
Oh yeah I'm a fool for the holy grail

**Im sure this is 99% right but the chord with the ** next 
to it im not sure if its a B or a G#m. 
Im only 14 and this is my first tab so plz mail me and
tell me what you think
Comments