Hunters And Collectors - Holy Grail Chords & Tabs

 

Holy Grail Chords & Tabs

Hunters And Collectors Chords & Tabs

Version: 1 Type: Tab 1 rating
1 star 2 stars 3 stars 4 stars 5 stars
comments

Holy Grail Tab

                      Holy Grail - Hunters and Collectors                       


Guitar
                                                                               
E||------------------|------------------|------------------|------------------|
B||------------------|------------------|------------------|------------------|
G||------------------|------------------|------------------|------------------|
D||------------------|------------------|------------------|------------------|
A||------------------|------------------|------------------|------------------|
E||------------------|------------------|------------------|------------------|


                                                                 
------------------|----------------------|--0----0--------------|
------------------|--------------2--2----|--2----2------4--4----|
------------------|--1----1------2--2----|--1----1--------------|
------------------|--2----2------2--2----|--------------4--4----|
------------------|--2----2------0--0----|--4----4------6--6----|
------------------|--0----0--------------|--------------7--7----|


                                                                     
----------------------|--0----0--------------|----------------------|
--------------2--2----|--2----2------4--4----|----------------------|
--1----1------2--2----|--1----1--------------|-----------1----------|
--2----2------2--2----|--------------4--4----|--------2-------------|
--2----2------0--0----|--4----4------6--6----|-----2----------------|
--0----0--------------|--------------7--7----|--0-------------------|


                                                                   
--0------------------|----------------------|--0------------------|
--2----------4--4----|----------------------|--2----------4--4----|
--1------------------|-----------1----------|--1------------------|
-------------4--4----|--------2-------------|-------------4--4----|
--4----------6--6----|-----2----------------|--4----------6--6----|
-------------7--7----|--0-------------------|-------------7--7----|


                                                                    
----------------------|--0------------------|----------------------|
----------------------|--2----------4--4----|--------------2--2----|
-----------1----------|--1------------------|--1----1------2--2----|
--------2-------------|-------------4--4----|--2----2------2--2----|
-----2----------------|--4----------6--6----|--2----2------0--0----|
--0-------------------|-------------7--7----|--0----0--------------|


                                                                    
--0----0--------------|----------------------|--0------------------|
--2----2------4--4----|----------------------|--2----------4--4----|
--1----1--------------|-----------1----------|--1------------------|
--------------4--4----|--------2-------------|-------------4--4----|
--4----4------6--6----|-----2----------------|--4----------6--6----|
--------------7--7----|--0-------------------|-------------7--7----|


                                                                    
----------------------|--0------------------|----------------------|
----------------------|--2----------4--4----|----------------------|
-----------1----------|--1------------------|-----------1----------|
--------2-------------|-------------4--4----|--------2-------------|
-----2----------------|--4----------6--6----|-----2----------------|
--0-------------------|-------------7--7----|--0-------------------|


                                                                    
--0------------------|----------------------|--0----0--------------|
--2----------4--4----|--------------2--2----|--2----2------4--4----|
--1------------------|--1----1------2--2----|--1----1--------------|
-------------4--4----|--2----2------2--2----|--------------4--4----|
--4----------6--6----|--2----2------0--0----|--4----4------6--6----|
-------------7--7----|--0----0--------------|--------------7--7----|


                                                               
--------------------|--0-----------------|--------------------|
--2----2------------|-----------4--------|--2----2------------|
--------------------|--6--------4--------|--------------------|
--2----2------------|--6--------4--------|--2----2------------|
--4----4------------|--4--------2--------|--4----4------------|
--5----5------------|--------------------|--5----5------------|


                                                               
--0-----------------|--------------------|--0-----------------|
-----------4--------|--2----2------------|-----------4--------|
--6--------4--------|--------------------|--6--------4--------|
--6--------4--------|--2----2------------|--6--------4--------|
--4--------2--------|--4----4------------|--4--------2--------|
--------------------|--5----5------------|--------------------|


                                                                     
----------------------|--0----0--------------|----------------------|
--------------2--2----|--2----2------4--4----|--------------2--2----|
--1----1------2--2----|--1----1--------------|--1----1------2--2----|
--2----2------2--2----|--------------4--4----|--2----2------2--2----|
--2----2------0--0----|--4----4------6--6----|--2----2------0--0----|
--0----0--------------|--------------7--7----|--0----0--------------|


                                                                    
--0----0--------------|----------------------|--0------------------|
--2----2------4--4----|----------------------|--2----------4--4----|
--1----1--------------|-----------1----------|--1------------------|
--------------4--4----|--------2-------------|-------------4--4----|
--4----4------6--6----|-----2----------------|--4----------6--6----|
--------------7--7----|--0-------------------|-------------7--7----|


                                                                    
----------------------|--0------------------|----------------------|
----------------------|--2----------4--4----|----------------------|
-----------1----------|--1------------------|-----------1----------|
--------2-------------|-------------4--4----|--------2-------------|
-----2----------------|--4----------6--6----|-----2----------------|
--0-------------------|-------------7--7----|--0-------------------|


                                                                    
--0------------------|----------------------|--0----0--------------|
--2----------4--4----|--------------2--2----|--2----2------4--4----|
--1------------------|--1----1------2--2----|--1----1--------------|
-------------4--4----|--2----2------2--2----|--------------4--4----|
--4----------6--6----|--2----2------0--0----|--4----4------6--6----|
-------------7--7----|--0----0--------------|--------------7--7----|

[ Tab from: http://www.guitartabs.cc/tabs/h/hunters_and_collectors/holy_grail_tab.html ]
                                                               
--------------------|--0-----------------|--------------------|
--2----2------------|-----------4--------|--2----2------------|
--------------------|--6--------4--------|--------------------|
--2----2------------|--6--------4--------|--2----2------------|
--4----4------------|--4--------2--------|--4----4------------|
--5----5------------|--------------------|--5----5------------|


                                                               
--0-----------------|--------------------|--0-----------------|
-----------4--------|--2----2------------|-----------4--------|
--6--------4--------|--------------------|--6--------4--------|
--6--------4--------|--2----2------------|--6--------4--------|
--4--------2--------|--4----4------------|--4--------2--------|
--------------------|--5----5------------|--------------------|


                                                                 
----------------------|--0----0--------------|------------------|
--------------2--2----|--2----2------4--4----|------------------|
--1----1------2--2----|--1----1--------------|------------------|
--2----2------2--2----|--------------4--4----|------------------|
--2----2------0--0----|--4----4------6--6----|------------------|
--0----0--------------|--------------7--7----|------------------|


                                                                            
------------------|------------------|------------------|------------------|
------------------|------------------|------------------|------------------|
------------------|------------------|------------------|------------------|
------------------|------------------|------------------|------------------|
------------------|------------------|------------------|------------------|
------------------|------------------|------------------|------------------|


                                                                            
------------------|------------------|------------------|------------------|
------------------|------------------|------------------|------------------|
------------------|------------------|------------------|------------------|
------------------|------------------|------------------|------------------|
------------------|------------------|------------------|------------------|
------------------|------------------|------------------|------------------|


                                                                            
------------------|------------------|------------------|------------------|
------------------|------------------|------------------|------------------|
------------------|------------------|------------------|------------------|
------------------|------------------|------------------|------------------|
------------------|------------------|------------------|------------------|
------------------|------------------|------------------|------------------|


                                                                                
------------------|------------------|------------------|----------------------|
------------------|------------------|------------------|--------------2--2----|
------------------|------------------|------------------|--1----1------2--2----|
------------------|------------------|------------------|--2----2------2--2----|
------------------|------------------|------------------|--2----2------0--0----|
------------------|------------------|------------------|--0----0--------------|


                                                                     
--0----0--------------|----------------------|--0----0--------------|
--2----2------4--4----|--------------2--2----|--2----2------4--4----|
--1----1--------------|--1----1------2--2----|--1----1--------------|
--------------4--4----|--2----2------2--2----|--------------4--4----|
--4----4------6--6----|--2----2------0--0----|--4----4------6--6----|
--------------7--7----|--0----0--------------|--------------7--7----|


                                                               
--------------------|--0-----------------|--------------------|
--2----2------------|-----------4--------|--2----2------------|
--------------------|--6--------4--------|--------------------|
--2----2------------|--6--------4--------|--2----2------------|
--4----4------------|--4--------2--------|--4----4------------|
--5----5------------|--------------------|--5----5------------|


                                                               
--0-----------------|--------------------|--0-----------------|
-----------4--------|--2----2------------|-----------4--------|
--6--------4--------|--------------------|--6--------4--------|
--6--------4--------|--2----2------------|--6--------4--------|
--4--------2--------|--4----4------------|--4--------2--------|
--------------------|--5----5------------|--------------------|


                                                                     
----------------------|--0----0--------------|----------------------|
--------------2--2----|--2----2------4--4----|--------------2--2----|
--1----1------2--2----|--1----1--------------|--1----1------2--2----|
--2----2------2--2----|--------------4--4----|--2----2------2--2----|
--2----2------0--0----|--4----4------6--6----|--2----2------0--0----|
--0----0--------------|--------------7--7----|--0----0--------------|


                                                                     
--0----0--------------|----------------------|--0----0--------------|
--2----2------4--4----|--------------2--2----|--2----2------4--4----|
--1----1--------------|--1----1------2--2----|--1----1--------------|
--------------4--4----|--2----2------2--2----|--------------4--4----|
--4----4------6--6----|--2----2------0--0----|--4----4------6--6----|
--------------7--7----|--0----0--------------|--------------7--7----|


                                                                     
----------------------|--0----0--------------|----------------------|
--------------2--2----|--2----2------4--4----|--------------2--2----|
--1----1------2--2----|--1----1--------------|--1----1------2--2----|
--2----2------2--2----|--------------4--4----|--2----2------2--2----|
--2----2------0--0----|--4----4------6--6----|--2----2------0--0----|
--0----0--------------|--------------7--7----|--0----0--------------|


                                                                      
--0----0--------------|----------------------|--0----0--------------||
--2----2------4--4----|--------------2--2----|--2----2------4--4----||
--1----1--------------|--1----1------2--2----|--1----1--------------||
--------------4--4----|--2----2------2--2----|--------------4--4----||
--4----4------6--6----|--2----2------0--0----|--4----4------6--6----||
--------------7--7----|--0----0--------------|--------------7--7----||


Comments