Hunters And Collecters - Throw Your Arms Around Me Chords & Tabs

 

Throw Your Arms Around Me Chords & Tabs

Hunters And Collecters Chords & Tabs

Version: 1 Type: Tab 2 ratings
1 star 2 stars 3 stars 4 stars 5 stars
comments

Throw Your Arms Around Me Tab

   
This is the king of Australian drunk songs and its very easy to play.

(Verses)

Its repetition of these chords

   E    A    E    B
e--0----0----0----X----
b--0----2----0----4----
G--1----2----1----4----
D--2----2----2----4----
A--2----0----2----2----
E--0----0----0----X----

(Chorus)
[ Tab from: http://www.guitartabs.cc/tabs/h/hunters_and_collecters/throw_your_arms_around_me_tab.html ]
So you will throw . . . . . 

   E    A    B
e--0----0----X----
b--0----2----4----
G--1----2----4----
D--2----2----4----
A--2----0----2----
E--0----0----X----


Very simple. Great when you know the words because ya can play it
when everyones drunk. Its a ripper of a sing along.
                                                            cheers.
Comments