Hundred Reasons - Stories With Unhappy Endings Chords & Tabs

 

Stories With Unhappy Endings Chords & Tabs

Hundred Reasons Chords & Tabs

Version: 1 Type: Tab 0 ratings
1 star 2 stars 3 stars 4 stars 5 stars
comments

Stories With Unhappy Endings Tab

Artist: Hundred Reasons
Title: Stories With Unhappy Endings


Drop D tuning: DADGBe

|-------------------|
|-------------------|
|------------12-12--|
|----------x--------|
|-10-10-10----------|
|-------------------|x2

|-------------------|
|-------------------|
|-----------10-10---|
|--------x----------|
|-8-8-8-------------|
|-------------------|x2

X4

Then....
Play each note alot of times
|---------------15----|
|---------13----------|
|--12-----------------|
|---------------------|
|---------------------|
|---------------------|

[ Tab from: http://www.guitartabs.cc/tabs/h/hundred_reasons/stories_with_unhappy_endings_tab.html ]
Verse:
|-------------------|
|-------------------|
|-------------------|
|-------------------|
|---2/3-3-----------|
|---2/3-3-----------|


Chorus:
|-------------------|
|-------------------|
|-------------------|
|-------------------|
|--10----3----5-----|
|--10----3----5-----|


back to intro riff, then the bit after


Verse
Chorus
Solo:
|------------------------------|
|------------------------------|
|------------------------------|
|-8-10-x-10-13-10--8-10-x-10---|
|------------------------------|
|------------------------------|

|------------------------------|
|------------------------------|
|-----------8------------------|
|-8-x-10-10---10-9-8-5-5-------|
|------------------------------|
|------------------------------|

End on F

|------|
|------|
|------|
|---3--|
|---3--|
|---3--|
Comments