Hundred Reasons - Silver Chords & Tabs

 

Silver Chords & Tabs

Hundred Reasons Chords & Tabs

Version: 9 Type: Tab 0 ratings
1 star 2 stars 3 stars 4 stars 5 stars
comments

Silver Tab

Another wicked song from Hundred Reasons

Intro:

e|-------------------------------------------|
B|----1---1p0---1---1p0---1---1p0---1---1p0--|
G|--0---0-----0---0-----0---0-----0---0------|
D|-------------------------------------------|
A|-------------------------------------------|
E|-------------------------------------------|


Bridge 1:

e|----------------0h1p0---0h1p0----|
B|--0-0-1-3-3-1-0-------1-------1--|
G|---------------------------------|
D|---------------------------------|
A|---------------------------------|
E|---------------------------------|


Verse:

e|------------------------------------------------------|
B|------------------------------------------------------|
G|--5-x-5-x-5-------------------------------------------|
D|--5-x-5-x-5--7-x-7-x-7--5-x-5-x-5-x-5-x-5--3-3-3-3-3--|
A|--3-x-3-x-3--7-x-7-x-7--5-x-5-x-5-x-5-x-5--3-3-3-3-3--|
E|-------------5-x-5-x-5--3-x-3-x-3-x-3-x-3--1-1-1-1-1--|

this is played during the last chord of verse
e|-------------|
B|----1---1p0--|
G|--0---0------|
D|-------------|
A|-------------|
E|-------------|


Chorus:
[ Tab from: http://www.guitartabs.cc/tabs/h/hundred_reasons/silver_tab_ver_9.html ]
e|--------------------------|
B|--------------------------|
G|--5---------5-------------|
D|--5----5----5----7--5--3--|
A|--3----5----3----7--5--3--|
E|-------3---------5--3--1--|


Bridge 2:

e|---------------------3-----------------------3-----------|
B|---0-1-3-1-0---0-1-3---3---0-1-3-1-0---0-1-3---3---------|
G|-0-----------0-----------0-----------0-----------0-------|
D|---------------------------------------------------------|
A|---------------------------------------------------------|
E|---------------------------------------------------------|


e|---3---3---3---3-----3---3---3---3----|
B|-----0---1---3---3-----0---1---3---3--|
G|-0-----------------0------------------|
D|--------------------------------------|
A|--------------------------------------|
E|--------------------------------------|


Solo:

this is played on keyboard, but it works well

e|-12-13-12----12-13-12-10-12-13-12----15-----|
B|----------13----------------------13--------|
G|----------------------------------------14--|
D|--------------------------------------------|
A|--------------------------------------------|
E|--------------------------------------------|


Outro:

e|-------------------------------------|
B|----1---1p0---1---1p0---1---1p0---1--|
G|--0---0-----0---0-----0---0-----0----|
D|-------------------------------------|
A|-------------------------------------|
E|-------------------------------------|
Comments