Hundred Reasons - Silver Chords & Tabs

 

Silver Chords & Tabs

Hundred Reasons Chords & Tabs

Version: 8 Type: Tab 0 ratings
1 star 2 stars 3 stars 4 stars 5 stars
comments

Silver Tab

   
Hundred Reasons - Silver

Drop-D tuning
p= pull off
h= hammer on

Intro

E---------------------------------
B---------------------------------
G-----5----------5-p- 4-----------
D-------5---------------5---------
A---------------------------------
E---3----------3------------------

Verse - guitar1
[ Tab from: http://www.guitartabs.cc/tabs/h/hundred_reasons/silver_tab_ver_8.html ]
E-----------------------------------------------------------------
B--------------------------5-h-6-p-6---------5-h-6-p-6------------
G---4--5--7--5--4-h-5----------------5------------------5---------
D-----------------------------------------------------------------
A-----------------------------------------------------------------
E-----------------------------------------------------------------

Guitar-2

E-----3-------------------------
B-----3-------------------------
G-----5-------------------------
D-----5----7-----5----3---------
A-----3----7-----5----3---------
E-----3----7-----5----3---------

Chorus
E-------3----3----3-3-3-3-3---------------------------------------
B-------3----3----3-3-3-3-3---------------------------------------
G-------5----3----5-5-5-5-5---------------------------------------
D-------5----5----5-5-5-5-5---7-7-7-7---5-5-5-5---3-3-3-3---------    x2
A-------3----5----3-3-3-3-3---7-7-7-7---5-5-5-5---3-3-3-3---------
E-------3----3----3-3-3-3-3---7-7-7-7---5-5-5-5---3-3-3-3---------


Listen to the cd and add the other bits in.
Comments