Hundred Reasons - Silver Chords & Tabs

 

Silver Chords & Tabs

Hundred Reasons Chords & Tabs

Version: 4 Type: Tab 0 ratings
1 star 2 stars 3 stars 4 stars 5 stars
comments

Silver Tab

------------------------------------------------------------
                Hundred Reasons - Silver
------------------------------------------------------------

Amazing song, is it me or do hundred reasons just get better an better? this best i heard 
so far, go get the album when its released! this band rules, dunno if this tab is all 
correct but most sounds pretty cool to me
the order to play it all is the bottom |
                                       V

INTRO - muzicman2002 tabbed this in the forum so thanks dude
e|---------------------------------------------------------|
B|---1---1p0---1---1p0---1---1p0---1---1p0-----------------|
G|-0---0-----0---0-----0---0-----0---0---------------------|
D|---------------------------------------------------------|
A|---------------------------------------------------------|
E|---------------------------------------------------------|

MAIN RIFF - guitar 1 - lead part - muzicman2002 tabbed this aswell
e|-------------0h1p0---0h1p0-------------------------------|
B|-0-1-3-3-1-0-------1-------1-----------------------------|
G|---------------------------------------------------------|
D|---------------------------------------------------------|
A|---------------------------------------------------------|
E|---------------------------------------------------------|

MAIN RIFF - guitar 2
e|---------------------------------------------------------|
B|---------------------------------------------------------|
G|---------------------------------------------------------|
D|-XXX-10-X-10-XX-10--XXX-7-X-7-XX-7-----------------------|
A|-XXX-10-X-10-XX-10--XXX-7-X-7-XX-7-----------------------|
E|-XXX--8-X--8-XX--8--XXX-5-X-5-XX-5-----------------------|

MAIN RIFF - guitar 2 continued
e|---------------------------------------------------------|
B|---------------------------------------------------------|
G|---------------------------------------------------------|
D|-XXX-5-X-5-XX-5--XXX-3-X-3-XX-3--------------------------|
A|-XXX-5-X-5-XX-5--XXX-3-X-3-XX-3--------------------------|
E|-XXX-3-X-3-XX-3--XXX-1-X-1-XX-1--------------------------|

X=palm mute chord, work out rhythm listen to song

VERSE
e|---------------------------------------------------------|
B|---------------------------------------------------------|
G|---------------------------------------------------------|
D|-10-X-10-X-101010--7-X-7-X-777---------------------------|
A|-10-X-10-X-101010--7-X-7-X-777---------------------------|
E|--8-X--8-X--8-8-8--5-X-5-X-555---------------------------|

VERSE - Continued
e|---------------------------------------------------------|
B|---------------------------------------------------------|
G|---------------------------------------------------------|
D|-5-X-5-X-555--3-X-3-X-3----------------------------------|
A|-5-X-5-X-555--3-X-3-X-3----------------------------------|
E|-3-X-3-X-333--1-X-1-X-1----------------------------------|
[ Tab from: http://www.guitartabs.cc/tabs/h/hundred_reasons/silver_tab_ver_4.html ]
CHORUS
e|---------------------------------------------------------|
B|---------------------------------------------------------|
G|---------------------------------------------------------|
D|-10--5--10----7--5--3------3-XXXX-3-XXXX-3-XXXX-3--------|
A|-10--5--10----7--5--3------3-XXXX-3-XXXX-3-XXXX-3--------|
E|--8--3---8----5--3--1------1-XXXX-1-XXXX-1-XXXX-1--------|
     let these chords        after second time only
          ring out

BRIDGE - weird slidy effect on this part and below
e|---------------------3-----------------------3-----------|
B|---0-1-3-1-0---0-1-3---3---0-1-3-1-0---0-1-3---3---------|
G|-0-----------0-----------0-----------0-----------0-------|
D|---------------------------------------------------------|
A|---------------------------------------------------------|
E|---------------------------------------------------------|

BRIDGE - continued - dont think this is correct but anyway
e|-----3--------------------3------------------------------|
B|---3---3---00-111-333---3---3---00-111-333---------------|
G|-0-------0------------0-------0--------------------------|
D|---------------------------------------------------------|
A|---------------------------------------------------------|
E|---------------------------------------------------------|

KEYBOARD - continued this part is really played on a cheap casio keyboard, i read in 
an interview

e|-12-13-12----12-13-12-10-12-13-12----15------------------|
B|----------13----------------------13---------------------|
G|----------------------------------------14---------------|
D|---------------------------------------------------------|
A|---------------------------------------------------------|
E|---------------------------------------------------------|

KEYBOARD BACKING - continued - guitar while keyboard is playing
e|---------------------------------------------------------|
B|---------------------------------------------------------|
G|---------------------------------------------------------|
D|-10---7---5---3-------3-XX-3-X-3-XX-3-X-33---------------|
A|-10---7---5---3-------3-XX-3-X-3-XX-3-X-33---------------|
E|--8---5---3---1-------1-XX-1-X-1-XX-1-X-11---------------|
  play these chords        after 2nd time
    12 times each

END - not sure about the end chord but anyway...
e|---------------------------------------------0-----------|
B|---1---1p0---1---1p0---1---1p0---1---1p0-----1-----------|
G|-0---0-----0---0-----0---0-----0---0-----0---0-----------|
D|---------------------------------------------------------|
A|---------------------------------------------------------|
E|---------------------------------------------------------|

Order:
INTRO x 3
MAIN RIFF - guitar 1 x4 - guitar 2 x2
VERSE x2
CHORUS x2
MAIN RIFF - guitar 1 x4 - guitar 2 x2
VERSE x2
CHORUS x2
BRIDGE x1
KEYBOARD and KEYBOARD BACKING x2
CHORUS X2
END x1

ok dudes thats it, send praise to 
getcha_grooveon@hotmail.com or add me on msn
i think u'll agree its a hard song to tab and i hope u like it and come on we gotta satrt 
tabbing all the other hundred reasons songs, theres only one on here!
see u guys later, jack
Comments