Hundred Reasons - Silver Chords & Tabs

 

Silver Chords & Tabs

Hundred Reasons Chords & Tabs

Version: 3 Type: Tab 0 ratings
1 star 2 stars 3 stars 4 stars 5 stars
comments

Silver Tab

Silver by Hundred reasons.
---------------------------------
tabbed by Joe Gibson


Intro-guitar 1                                          
|-----------------------------------------------------------------------------------------------------|
|----1-------------1p0----------------------1-------------------1p0-------------------------------|
|-------0------------------0---------------------0------------------------0-------------------------|
|-----------------------------------------------------------------------------------------------------|
|-----------------------------------------------------------------------------------------------------|
|-1------------1-------------------------1------------------1---------------------------------------|

Intro-Guitar 2           
|-----------------------------------------------------------------------------------------------------|
|-----------------------------12---------12------------12------------------------------------------|
|-- play in harmonics ---------12-----------12-------------12---------------------------------
|-----------------------------------------------------------------------------------------------------|
|-----------------------------------------------------------------------------------------------------|
|-----------------------------------------------------------------------------------------------------|

Pre-verse Guitar 1         Listen to the song and for strumming   
|---------------------------------------------------------------------------------------------------- -|
|---------------------------------------------------------------------------------------------------- -|
|--5--x--5--x--5-5-5-------------------------------------------------------------------------------|
|--x--x--x--x--x-x-x----7--x--7--x--7--7--7----5--x--5--x--5-5-5---- 3--x--3--x--3-3-3|
|--3--x--3--x--3-3-3----x--x--x--x--x--x--x----x--x--x--x--x-x-x-----x--x--x--x--x-x-x--|
|-----------------------5--x--5--x--5--5--5----3--x--3--x--3-3-3-----1--x--1--x--1-1-1 |

Pre-verse guitar 2                                                                                               
|-------------------------------0h1p0------0h1p0------------------------0h1p0------0h1p0-|
|---------0-1-3-1-0--------------------1-------------1-----0-1-3-1-0-------------1----------1
|-----------------------------------------------------------------------------------------------------|
|-----------------------------------------------------------------------------------------------------|
|--3-3------------------0-0-------------------------------------------------------------------------|
|-----------------------------------------------------------------------------------------------------|
[ Tab from: http://www.guitartabs.cc/tabs/h/hundred_reasons/silver_tab_ver_3.html ]
Verse Guitar 2
|-----------------------------------------------------------------------------------------------------|
|------------------------------------------------------------------------------1---------1p0--------|
|--5--x--5--x--5-5-5---5--5--5--5--5--5--5--  5--5--5--5--5-5-5--------0--------------0 |
|--x--x--x--x--x-x-x --x--x--x--x--x--x--x----x--x--x--x--x-x-x-----------------------------|
|--3--x--3--x--3-3-3---x--x--x--x--x--x--x ---x--x--x--x--x-x-x ----------------------------|
|----------------------5--x--5--x--5--5--5--- 3--x--3--x--3-3-3---1---------1-------------|
 
Chorus-Both guitars 
|------------------------------------------------------------------------------------------------------|
|------------------------------------------------------------------------------------------------------|
|------------------------------------------------------------------------------------------------------|
|---10--/--5--\--10----------7-----5--------3-----------------------------------------------------|
|----x--/--x--\-- x----------x-----x--------x-----------------------------------------------------|
|----8--/--3--\-- 8----------5-----3--------1----------------------------------------------------|
          Slow slide.        Strum whatever sounds right


slow bit before the final chorus.

Guitar 2 
|------------------------------------------3----|----------3--3--------3--3---------3--3---------3|
|-----0--1—1\3/1--0--------0--1--1/3----3-|-----------------0--0---------1--1-------1\3-3- |
|--0-----------------------0--------------------|---0--0--------------------------------------------|
|-----------------------------------------------|-----------------------------------------------------|
|-----------------------------------------------|-----------------------------------------------------|
|-----------------------------------------------|-----------------------------------------------------|


If you like you can play the cool synthesiser bit!?                                    
|---7h8p7------7h8p7----------7h8p7--------10----------------------------------------------|
|------------8-------------10--------------8------------5------------------------------------------|
|------------------------------------------------------------------------------------------------------|
|------------------------------------------------------------------------------------------------------|
|------------------------------------------------------------------------------------------------------|
|------------------------------------------------------------------------------------------------------|

Both guitars are strumming these chords quickly.
|------------------------------------------------------------------------------------------|
|------------------------------------------------------------------------------------------|
|--5----5----5-5-5-----------------------------------------------------------------------|
|--x----x----x-x-x----7----7----7--7--7----5---5----5-5-5---- 3--x--3----3-3-3---|
|--3----3----3-3-3----x----x----x--x--x----x---x----x-x-x-----x--x--x----x-x-x---|
|---------------------5----5----5--5--5----3----3---3-3-3-----1--x--1----1-1-1--  |
1st part of riff

|------------------------------------------------------------------------------------------|
|------------------------------------------------------------------------------------------|
|--5-5-5-5-5-----------------------------------------------------------------------------|
|--x-x-x-x-x----7-7-7-7-7---5-5-5-5-5---- 3--x-x-x--3--x-x-x--------------------|
|--3-3-3-3-3----x-x-x-x-x---x-x-x-x-x-----x--x-x-x--x--x-x-x--------------------|
|---------------5-5-5-5-5---3-3-3-3-3----- 1--x-x-x--1--x-x-x------------------  |
2nd part of riff

Chorus.
|------------------------------------------------------------------------------------------------------|
|------------------------------------------------------------------------------------------------------|
|------------------------------------------------------------------------------------------------------|
|---10--/--5--\--10--------------7--------5--------3----------------------------------------------|
|----x--/--x--\-- x---------------x----- --x---------x-----------------------------------------------|
|----8--/--3--\-- 8---------------5-------3---------1----------------------------------------------|
          Slow slide.        Strum whatever sounds right

Order guitar one
Intro x6
Pre verse x2
Verse – singing
Chorus x2
Pre verse x2
Verse – singing
Chorus x2
Either synthesiser x2 or 1st and 2nd part of riff one time each
Chorus x2


Order guitar two
Intro x10
Pre verse x2
Verse x2
Chorus x2
Pre verse x2
Verse x2
Chorus x2
Slow bit - each bar x2
Either synthesiser x2 or 1st and 2nd part of riff one time each
Chorus x2



Comments