Hundred Reasons - Silver Chords & Tabs

 

Silver Chords & Tabs

Hundred Reasons Chords & Tabs

Version: 1 Type: Tab 0 ratings
1 star 2 stars 3 stars 4 stars 5 stars
comments

Silver Tab

Silver by Hundred reasons.
---------------------------------
Tabbed by Max Brown (max14_brown@hotmail.com)                         standard tuning                                                          

It'll sound pretty shite untill you get two guitars goin, but you'll get the idea.

This is probably their best song so far, here’s my version. It seems pretty much 100%
but theres probably summin wrong with it!

Intro-guitar 1                                          (rpt x6)
|-------------------------------------------------------------------------------------------------|
|----1-------------1p0----------------------1-------------------1p0-------------------------------|
|-------0------------------0---------------------0------------------------0-----------------------|
|-------------------------------------------------------------------------------------------------|
|-------------------------------------------------------------------------------------------------|
|-1------------1-------------------------1------------------1-------------------------------------|

Intro-Guitar 2           play as base comes in     (rpt x9)
|------------------------------------------------------------------------------------------|
|---------------------------12---------12------------12------------------------------------|
|-- play in harmonics ---------12-----------12-------------12------------------------------|
|------------------------------------------------------------------------------------------|
|------------------------------------------------------------------------------------------|
|------------------------------------------------------------------------------------------|

Pre-verse Guitar 1         Listen to the song and you’ll pick up the strumming   (rpt x2)
|--------------------------------------------------------------------------------------|
|--------------------------------------------------------------------------------------|
|--5--x--5--x--5-5-5-------------------------------------------------------------------|
|--x--x--x--x--x-x-x----7--x--7--x--7--7--7----5--x--5--x--5-5-5---- 3--x--3--x--3-3-3-|
|--3--x--3--x--3-3-3----x--x--x--x--x--x--x----x--x--x--x--x-x-x-----x--x--x--x--x-x-x-|
|-----------------------5--x--5--x--5--5--5----3--x--3--x--3-3-3-----1--x--1--x--1-1-1-|

Pre-verse guitar 2                                                                   (rpt x2)
|-------------------------------0h1p0------0h1p0------------------------0h1p0------0h1p0----|
|---------0-1-3-1-0--------------------1-------------1-----0-1-3-1-0-------------1--------1-|
|-------------------------------------------------------------------------------------------|
|-------------------------------------------------------------------------------------------|
|--3-3------------------0-0-----------------------------------------------------------------|
|-------------------------------------------------------------------------------------------|
[ Tab from: http://www.guitartabs.cc/tabs/h/hundred_reasons/silver_tab.html ]
Verse Guitar 2 (only Guitar 2 coz guitar 1 does the vocals!)                  (rpt x2)
|--------------------------------------------------------------------------------------|
|-------------------------------------------------------------------1---------1p0------|
|--5--x--5--x--5-5-5--------------------------------------------------0-------------0- |
|--x--x--x--x--x-x-x --7--x--7--x--7--7--7----5--x--5--x--5-5-5------------------------|
|--3--x--3--x--3-3-3---x--x--x--x--x--x--x ---x--x--x--x--x-x-x -----------------------|
|----------------------5--x--5--x--5--5--5--- 3--x--3--x--3-3-3---1---------1----------|
 
Chorus-Both guitars (I think)    not to sure about this part, correct it if you can!  (rpt once)
|----------------------------------------------------------------------------------------------------|
|----------------------------------------------------------------------------------------------------|
|----------------------------------------------------------------------------------------------------|
|---10--/--5--\--10----------------5---------3-------------------------------------------------------|
|----x--/--x--\-- x----------------x---------x-------------------------------------------------------|
|----8--/--3--\-- 8----------------3---------1-------------------------------------------------------|
          Slow slide.        Strum whatever sounds right

Then after chorus you play the Pre-verse part and then the Verse followed by the chorus.

Now is the cool bit, the slow bit before the final chorus.

Guitar 2                                 (Rpt x1)                                        (rpt x1)
|------------------------------------3---|-----------3--3--------3--3---------3--3---------3---|
|-----0--1—1\3/1--0--------0--1--1/3---3-|-----------------0--0---------1--1---------1\3-----3-|
|--0------------------0------------------|-----0--0--------------------------------------------|
|----------------------------------------|-----------------------------------------------------|
|----------------------------------------|-----------------------------------------------------|
|----------------------------------------|-----------------------------------------------------|


If you like you can play the cool synthesiser bit!?                                       (rptx1)
|---7h8p7------7h8p7----------7h8p7--------10--------------------------------------------------|
|----------8-------------10--------------8------------5----------------------------------------|
|----------------------------------------------------------------------------------------------|
|----------------------------------------------------------------------------------------------|
|----------------------------------------------------------------------------------------------|
|----------------------------------------------------------------------------------------------|

Both guitars are strumming these chords quickly.
|-------------------------------------------------------------------------------|
|-------------------------------------------------------------------------------|
|--5----5----5-5-5--------------------------------------------------------------|
|--x----x----x-x-x----7----7----7--7--7----5---5----5-5-5---- 3--x--3----3-3-3--|
|--3----3----3-3-3----x----x----x--x--x----x---x----x-x-x-----x--x--x----x-x-x--|
|---------------------5----5----5--5--5----3----3---3-3-3-----1--x--1----1-1-1--|
1st part of riff

|----------------------------------------------------------------------------|
|----------------------------------------------------------------------------|
|--5-5-5-5-5-----------------------------------------------------------------|
|--x-x-x-x-x----7-7-7-7-7---5-5-5-5-5---- 3--x-x-x--3--x-x-x-----------------|
|--3-3-3-3-3----x-x-x-x-x---x-x-x-x-x-----x--x-x-x--x--x-x-x-----------------|
|---------------5-5-5-5-5---3-3-3-3-3-----1--x-x-x--1--x-x-x-----------------|
2nd part of riff

Chorus.
|---------------------------------------------------------------------------------------------------|
|---------------------------------------------------------------------------------------------------|
|---------------------------------------------------------------------------------------------------|
|---10--/--5--\--10---------------5--------3--------------------------------------------------------|
|----x--/--x--\-- x---------------x--------x--------------------------------------------------------|
|----8--/--3--\-- 8---------------3--------1--------------------------------------------------------|
          Slow slide.        Strum whatever sounds right

That’s pretty much it…bare in mind that this is my first ever tab but feel free to E-mail any corrections or comments to me
Comments