Hundred Reasons - Remmus Chords & Tabs

 

Remmus Chords & Tabs

Hundred Reasons Chords & Tabs

Version: 1 Type: Tab 0 ratings
1 star 2 stars 3 stars 4 stars 5 stars
comments

Remmus Tab

Artist: Hundred reasons
Song: Remmus
Tabbed by : Ricky C (Gumbleweed@hotmail.com)


drop d  but hr tune their guitars down a whole step  

intro:  

e|----------------------------------------------------------------------------------             
b|----------------------------------------------------------------------------------             
g|------------------------7-------------------------------x2 -----------------------       
d|-----7---------5----------------5------7---5------5--------7-7-7---5--5-5--4-4-4--7------|  x1
a|---5---------5--------------5-----5-----------5------------7-7-7---5--5-5--4-4-4--7------|
d|-7---------5-----------------------------------------------7-7-7---5-5-5---4-4-4--7------|



 verse 1  is the whole intro riff x 3 then four chord stabs on the A power chord

chorus:
[ Tab from: http://www.guitartabs.cc/tabs/h/hundred_reasons/remmus_tab.html ]
e|-----------------------------------------------------------------------------------------------
b|----------------------------------------------------------8---------------8--------------------
g|-7-7-7-7-7-7-------9-9-9-9-9-9-----------------5------5-------5----------8---------------------
d|-7-7-7-7-7-7--x2---9-9-9-9-9-9--x2-------------------------------------------------------------
a|-5-5-5-5-5-5-------5-5-5-5-5-5-------------7-------------8----------------------------5-5-5-5--
d|---------------------------------------------------------------------------------------0h7----0


reapeat verse 
chorus x 2




'WOOOO!' bit

e|---------12-------------12------------|
b|-----12----12-------12----12----------|
g|--13-------------13-------------------|  x2    then colin goes 'wooo'
d|--------------------------------------|
a|--------------------------------------|
d|--------------------------------------|

e|-----------------------------------------------------------------------------------------------
b|-----------------------------------------------------------------------------------------------
g|--------------9----------------9----------------9----------------9----------9------------------
d|---6-------9-----9---6-----9------9---5----9----9-----7---9-----9----------9------------x4
a|-----------------------------------------------------------------------------------------------
d|-----------------------------------------------------------------------------------------------



Comments