Hundred Reasons - Introduction To Pop Chords & Tabs

 

Introduction To Pop Chords & Tabs

Hundred Reasons Chords & Tabs

Version: 1 Type: Tab 0 ratings
1 star 2 stars 3 stars 4 stars 5 stars
comments

Introduction To Pop Tab

   
-------------------------------------------------------------------------------
			     INTRODUCTION TO POP - Hundred Reasons
-------------------------------------------------------------------------------
Tabbed by: ianhr
Email: mangafan21@hotmail.com

Tuning: Tuned down a Whole Step DGCFAD
I suppose this can be played in Standard Tuning if you play everything 2 frets lower but I tabbed
it this way because HR usually use DGCFAD tuning

This is my first tab so go easy on me. Enjoy!


Intro

Guitar 1
D|---
A|---
F|-7-
C|-7-	Strum this chord
G|-5-
D|---

Guitar 2
D|----------------|         |---------------------|
A|----------------|         |---------------------|
F|-7-7-9/11-9-7-7-| x3 then |-7-7-9/11-12-11-9-11-|
C|----------------|         |---------------------|
G|----------------|         |---------------------|
D|----------------|         |---------------------|


Verse - "I believe if I fly"

Guitar 1
D|----------------|        |------------------------------------------------|
A|----------------|        |------------------------------------------------|
F|-7--------------|        |------------------------------------------------|
C|-7-strum this---|        |-7----------------------------------------------|
G|-5--------------|        |-7-strum this-----------------------------------|
D|----------------|        |-5----------------------------------------------|

Guitar 2
D|----------------|        |----------------|         |---------------------|
A|----------------|        |----------------|         |---------------------|
F|-7-7-9/11-9-7-7-|x4 then |-----9/11-9-7-7-| x3 then |-----9/11-12-11-9-11-|
C|----------------|        |-7-7------------|         |-7-7-----------------|
G|----------------|        |----------------|         |---------------------|
D|----------------|        |----------------|         |---------------------|


Prechorus - "And I'll be waiting"
[ Tab from: http://www.guitartabs.cc/tabs/h/hundred_reasons/introduction_to_pop_tab.html ]
Guitar 1
D|---
A|---
F|---
C|-5- gradually strum this chord harder
G|-5-
D|-3-

Guitar 2
D|---
A|-8-
F|-7-
C|-5- gradually strum this chord harder
G|---
D|---


Chorus - "No excuses"

Guitar 1
D|----------------------------------|--------------------------------------|
A|-------------------------------10-|--------------------------------------|
F|-7-------------7--7-7--9--9-9--9--|-5--5-5--6--6-6--7---5--5-5--6--6-6--7|
C|-7-strum this--7--7-7--7--7-7--7--|-5--5-5--6--6-6--7---5--5-5--6--6-6--7|
G|-5-------------5--5-5-------------|-3--3-3--4--4-4--5---3--3-3--4--4-4--5|
D|----------------------------------|--------------------------------------|

Guitar 2
D|----------------------------------|--------------------------------------|
A|-----7-7-----------------------10-|--------------------------------------|
F|-7-7-----9-----7--7-7--9--9-9--9--|-5--5-5--6--6-6--7---5--5-5--6--6-6--7|
C|---------------7--7-7--7--7-7--7--|-5--5-5--6--6-6--7---5--5-5--6--6-6--7|
G|----------------------------------|--------------------------------------|
D|----------------------------------|--------------------------------------|

Chorus 2 - "Wasting time with.."

Both Guitars
D|-------------------|
A|-------------------|
F|-7-----------------|
C|-7--------7--------|   Strum these chords
G|-5--------7--------|
D|----------5--------|


End on
D|---|
A|---|
F|-7-|
C|-7-|
G|-5-|
D|---|


Order

Intro     x1
Verse     x2
Prechorus x1
Chorus    x2
Intro     x1
Verse     x2
Prechorus x1
Chorus    x2
Chorus 2  x2
Verse     x1 (without singing)
Prechorus x1
Chorus    x2 (listen for Guitar 1 single strum)
Chorus 2  x2
Chorus 2  x2 (with single strums)


| /  slide up
| \  slide down
| h  hammer-on
| p  pull-off
| ~  vibrato
| +  harmonic
| x  Mute note
===============================================================================
Comments