Hundred Reasons - Ill Find You Chords & Tabs

 

Ill Find You Chords & Tabs

Hundred Reasons Chords & Tabs

Version: 4 Type: Tab 0 ratings
1 star 2 stars 3 stars 4 stars 5 stars
comments

Ill Find You Tab

Song: I'll find you
Album : Ep 3
Band: Hundred reasons
Tabbed by: Jay (korn_kings@hotmail.com)

this is a good song and not very hard to play

e|--------------------------------------------------------------------------------------|
b|--------------------------------------------------------------------------------------|
g|-7-7-7-7-7-7----7-7-7-7-7-7--9-9-9----11-11-11-11-11-11-11-11-11-11-11-11-11---14--14-|   play this twice
d|-0-0-0-0-0-0----0-0-0-0-0-0--0-0-0----0--0--0--0--0--0--0--0--0--0--0--0--0----0---0--|
a|-5-5-5-5-5-5----5-5-5-5-5-5--7-7-7----9--9--9--9--9--9--9--9--9--9--9--9--9----12--12-|
D|--------------------------------------------------------------------------------------|

verse
[ Tab from: http://www.guitartabs.cc/tabs/h/hundred_reasons/ill_find_you_tab_ver_4.html ]
e|----------------------------------------------------------------------|
b|----------------------------------------------------------------------|
g|---7-7-7-7-7-------7-7-7-7-7--------12-12-12-12-12--12-12-12-12-12----|      x2
d|---7-7-7-7-7--0----7-7-7-7-7-0------12-12-12-12-12--12-12-12-12-12----|
a|---5-5-5-5-5--0----5-5-5-5-5-0------10-10-10-10-10--10-10-10-10-10----|
D|--------------0--------------0----------------------------------------|

Chorus

e|-------------------------------------------------------------------------------------------------------------------------|
b|-------------------------------------------------------------------------------------------------------------------------|
g|---7--7--------7---12-12-12--11-11-11--7-7-7-7-7-7-7-7--12-12-12-14-14-14------------------------------------------------|
d|---7----7------7---12-12-12--11-11-11--7-7-7-7-7-7-7-7--12-12-12-14-14-14---7-7-7-7-7-7-7-7-12-12-12-11-11-11-9-9-9-9-9--|
a|---5-------5---5---10-10-10---9--9--9--5-5-5-5-5-5-5-5--10-10-10-12-12-12---5-5-5-5-5-5-5-5-10-10-10--9--9--9-7-7-7-7-7--|
D|-------------------------------------------------------------------------------------------------------------------------|

pre-verse

e|--------------------------------|
b|--------------------------------|
g|--7-7-7-7-7-7-----7-----12--12--|
d|--7-7-7-7-7-7-0---7-----12--12--|
a|--5-5-5-5-5-5-0---5-----10--10--|
D|--------------0-----------------|

verse x2
chorus x2
intro x3
chorus x2
pre-verse x8
Comments