Hundred Reasons - Ill Find You Chords & Tabs

 

Ill Find You Chords & Tabs

Hundred Reasons Chords & Tabs

Version: 3 Type: Tab 0 ratings
1 star 2 stars 3 stars 4 stars 5 stars
comments

Ill Find You Tab

------------------------------------------------------------
			     I'll find you - Hundred Reasons
------------------------------------------------------------
By:benn atkins
[ Tab from: http://www.guitartabs.cc/tabs/h/hundred_reasons/ill_find_you_tab_ver_3.html ]
Intro:
e|----------------------------------------------------------
B|----------------------------------------------------------
G|7-777-777-7--9-99---10--101010--101010--999---------------
D|0-000-000-0--0-00----0---0 0 0---0 0 0--000---------------
A|0-000-000-0--0-00----0---0 0 0---0 0 0--000---------------
D|0-000-000-0--0-00----0---0 0 0---0 0 0--000---------------

Bridge:
e|----------------------------------------------------------
B|----------------------------------------------------------
G|7-777-777-7--9-99---10-101010-101010-111111---------------
D|0-000-000-0--0-00---0 -0 0 0 -0 0 0 -0 0 0 ---------------
A|0-000-000-0--0-00---0 -0 0 0 -0 0 0 -0 0 0 ---------------
D|0-000-000-0--0-00---0 -0 0 0 -0 0 0 -0 0 0 ---------------

this is very easy to play. play with a stacarto feel
im in the middle of working out the verse and courus but won't be to long
Comments