Hundred Reasons - Ill Find You Chords & Tabs

 

Ill Find You Chords & Tabs

Hundred Reasons Chords & Tabs

Version: 2 Type: Tab 0 ratings
1 star 2 stars 3 stars 4 stars 5 stars
comments

Ill Find You Tab

This is my first shitty attempt at tabs so please be gentle!I know this
isn't entirely correct and bits of the song are missing but no-one else
appears to have even attempted it as i cant find hundred reasons tabs anywhere
on the internet! Neway anybody whos got any ideas of where ive gone wrong (if
i have) please have a go!!
[ Tab from: http://www.guitartabs.cc/tabs/h/hundred_reasons/ill_find_you_tab_ver_2.html ]
intro/chorus                                                            (only in chorus)
e---------------------------------------------------------------------  (- )
b---------------------------------------------------------------------  (- )
g----7-7-7-7-7-7-7-7-7-7-7-7-7-7-7-7-7-9-9-9-9-9-9-9-9-9-9-9-9-11-11-11 (12)
d----7-7-7-7-7-7-7-7-7-7-7-7-7-7-7-7-7-9-9-9-9-9-9-9-9-9-9-9-9-11-11-11 (12)
a----5-5-5-5-5-5-5-5-5-5-5-5-5-5-5-5-5-7-7-7-7-7-7-7-7-7-7-7-7-9 -9 -9  (10)
e---------------------------------------------------------------------- (- )

verse
e------------------------------------------------------------------------ --------------------------
b------------------------------------------------------------------------ --------------------------
g----7/9/11-7-----7/9/11-7-----7/9/7------7/9/11-11-----7/9/11-7----7/9/11-7----7-7/9/------7/9/11-11
d----7/9/11-7-----7/9/11-7-----7/9/7-7----7/9/11-11-----7/9/11-7----7/9/11-7----7-7/9/7-----7/9/11-11
a----5/7/9 -5-----5/7/9 -5-----5/7/5-7----5/7/9 -9 -----5/7/9 -5----5/7/9 -5----5-5/7/5-----5/7/9 -9 
e--------- ------------ -------------5--------- -- ---------- ---------- -------------5---------- -- 
Comments