Hundred Reasons - If I Could Chords & Tabs

 

If I Could Chords & Tabs

Hundred Reasons Chords & Tabs

Version: 2 Type: Tab 0 ratings
1 star 2 stars 3 stars 4 stars 5 stars
comments

If I Could Tab

   







hundred reasons - if i could










hundred reasons - if i could

 

i am correcting some of the mistakes - 

although most of it was pretty close

orignally.

 

the first time this is strummed the 

timing is slightly different but all others is like
this.

this, although not perfect sounds very similar to 

what is played.

 

    guitar
one - intro/clean  guitar two -
intro/light dist  

e-------------------------------l--e----------------------------

b-------------------------------l--b--8-8-8----8-8-8------------

g-------------------------------l--g--7-7-7----7-7-7------------

d-4-5-5---5-5-0-----x8 i
think--l--d--4-5-5----5-5-0------------

a-4-5-5---5-5-0-----------------l--a----------------------------

d-------------------------------l--d----------------------------

 

or possibly --->

    Guitar 1

e-------------------------------l--e----------------------------

b-------------------------------l--b--8-8-8--8-8-8--------------

g-7-7-7---7-7-7-----------------l--g--7-7-7--7-7-7--------------

d-4-5-5---5-5-0-----x8 i
think--l--d----------------------------

a-------------------------------l--a----------------------------

d-------------------------------l--d----------------------------

 

Then The first rock bit!!

 

The Harmonic / feedback bit i play like this.

 

bl----P-------------

Gl--11(23)~~~~~~~~~~ pinch at 23rd fret and a little
vibrato.

dl------------------

 

 

Guitar One - heavy dist

e-----------------------------------------------------------------

b-----------------------------------------------------------------

g-----------------------------------------------------------------

d-4-5-5-5-4-0-7-7-7-7--7/8--8-8-8-8-8/10--10-10-10-10-------x4----

a-4-5-5-5-4-0-7-7-7-7--7/8--8-8-8-8-8/10--10-10-10-10-------------

d-4-5-5-5-4-0-7-7-7-7--7/8--8-8-8-8-8/10--10-10-10-10-------------

 

Guitar two - intro/light dist  

      A                      B                    
C

e----------------------    -----l-e------------l   
l---------------l

b-8-8-8---8-8-8--------    -----l-b-11-11-11---l   
l-13-13-13------l

g-7-7-7---7-7-7--x2----then-----l-g-10-10-10-x2lthenl-12-12-12---x2-l

d-4-5-5---5-5-0--------    -----l-d-8--8--8----l   
l-10-10-10------l

a----------------------    -----l-a------------l   
l---------------l

d----------------------    -----l-d------------l   
l---------------l

 

<----then go back to a and repeat a,b,c 4
times--------------------->

 

(this may be a little confusing so 

--> play A x2<-----------------------¬

    then B
x2                        l

    then C x2                       l

    then A x2                       l

    then B x2            
             l
[ Tab from: http://www.guitartabs.cc/tabs/h/hundred_reasons/if_i_could_tab_ver_2.html ]
    then C
x2<--then go back to here l do this again. )

 

both guitars - heavy intro cont/dist

e-------------------------------------------------------------------

b-------------------------------------------------------------------

g-------------------------------------------------------------------

d-4-5-5-5-4-0--4-5-5-5-4-0--4-5-5-5-4-0--4-5-5-5-4------------------

a-4-5-5-5-4-0--4-5-5-5-4-0--4-5-5-5-4-0--4-5-5-5-4------------------

d-4-5-5-5-4-0--4-5-5-5-4-0--4-5-5-5-4-0--4-5-5-5-4------------------

 

verse/clean

e-3-3-3-3-3-3-3-3-3-2-2-2-2-2-2-2-2-5-5-5-5-5-5-5-5-3-3-3-3-3-3-3-3

B-3-3-3-3-3-3-3-3-3-3-3-3-3-3-3-3-3-3-3-3-3-3-3-3-3-3-3-3-3-3-3-3-3

g------------------------------------------------------------------

d------------------------------------------------------------------

a------------------------------------------------------------------

d------------------------------------------------------------------

 

chorus - play both heavy intro bits

 

 

bridge light crunchy sound

 

 

there are to guitars playing here i to be honest
i've one 

most of the hard work so if you want both parts i
can email 

them if u desperately want me to figure them out.

btw....the second guitar mixes in a 

bit of Dminor at some points --->

(El---1----

 bl---3----)

 

 

 

Better to play note in bracket but 

i can never get to it fast enuff  ( ~~~ = let note ring )

e-----3~~~~~~~~~~~~~~~~3~~~~~~~~~~~~~~3--5~~~~~~~~3-5--3-3h5p3-

b---3~~~3~~~~~~~~~~~~3~~~~~~~~~~~~~~3~~~~~~~~~~~3~~~~~~~~~~~~~~

g-0~~~~~~~~2~~~~~0~~~~~~~~2------------------------------------

d(5)~~~~~~~~~~~~~~~4~~~~~~~~~~~~4-3~~~~~~~~~3-4~~~~~~~~~~~~~~~~

a--------------------------------------------------------------

d--------------------------------------------------------------

play several times - this is by no means 

perfect but it is the general idea.

 

guitar one - build up/dist

e----------------------------------------------------------

b----------------------------------------------------------

g----------------------------------------------------------

d--4-5-5-5-5-4-0-4-5-5-5-5-4-0-4-5-5-5-5-4-0-4-5-5-5-5-4-0-x2

a--4-5-5-5-5-4-0-4-5-5-5-5-4-0-4-5-5-5-5-4-0-4-5-5-5-5-4-0-

d--4-5-5-5-5-4-0-4-5-5-5-5-4-0-4-5-5-5-5-4-0-4-5-5-5-5-4-0-

pm--------------------------------------------------------

 

guitar two - build up/clean

e-1-1-1-1--------------------------------------------------

B-3-3-3-strum in A continuos
pattern-----------------------

g----------------------------------------------------------

d----------------------------------------------------------

a----------------------------------------------------------

d----------------------------------------------------------

 

 

then play the chorus until the end and end on the g
chord

 

i did spend a while correcting this so i hope it
helps.

any comments (good or bad) or requests send to phil54321@hotmail.com

 

btw sorry about the confusing layout 






Comments