Hundred Reasons - If I Could Chords & Tabs

 

If I Could Chords & Tabs

Hundred Reasons Chords & Tabs

Version: 1 Type: Tab 0 ratings
1 star 2 stars 3 stars 4 stars 5 stars
comments

If I Could Tab

   
hundred reasons - if i could
i'm surprised none of the teeny boppers have tried to tab this yet
note drop d tuning

    guitar one - intro/clean		guitar two - intro/dist	
e-------------------------------l--e----------------------------
b-------------------------------l--b----------------------------
g-------------------------------l--g----------------------------
d-4-5---5-5-4-0-----x8 i think--l--d--x-x-x-x-------------------
a-4-5---5-5-4-0-----------------l--a--x-x-x-x------feedback-----
d-4-5---5-5-4-0-----------------l--d--x-x-x-x-------------------

both guitars - heavy intro/dist
e----------------------------------------------------------------------
b----------------------------------------------------------------------
g----------------------------------------------------------------------
d-4-5-5-5-4-0-7-7-7-7--7/8--8-8-8-8-8/10--10-10-10-10-------x4 i think-
a-4-5-5-5-4-0-7-7-7-7--7/8--8-8-8-8-8/10--10-10-10-10------------------
d-4-5-5-5-4-0-7-7-7-7--7/8--8-8-8-8-8/10--10-10-10-10------------------

both guitars - heavy intro cont/dist
e-------------------------------------------------------------------
b-------------------------------------------------------------------
g-------------------------------------------------------------------
d-4-5-5-5-4-0--4-5-5-5-4-0--4-5-5-5-4-0--4-5-5-5-4------------------
a-4-5-5-5-4-0--4-5-5-5-4-0--4-5-5-5-4-0--4-5-5-5-4------------------
d-4-5-5-5-4-0--4-5-5-5-4-0--4-5-5-5-4-0--4-5-5-5-4------------------
[ Tab from: http://www.guitartabs.cc/tabs/h/hundred_reasons/if_i_could_tab.html ]
verse/clean
e-3-3-3-3-3-3-3-3-3-2-2-2-2-2-2-2-2-5-5-5-5-5-5-5-5-3-3-3-3-3-3-3-3
b-3-3-3-3-3-3-3-3-3-3-3-3-3-3-3-3-3-3-3-3-3-3-3-3-3-3-3-3-3-3-3-3-3
g------------------------------------------------------------------
d------------------------------------------------------------------
a------------------------------------------------------------------
d------------------------------------------------------------------

chorus - play both heavy intro bits


slow middle bit/slight dist 
e-----3---------2-----5-------3---3h5p3---------------
b---3---3-----3-----3---3---3---3---------------------
g-0-------0-------0-------0--------------xa few times-
d-----------0-----------------------------------------
a-----------------------------------------------------
d-----------------------------------------------------

guitar one - build up/dist
e----------------------------------------------------------
b----------------------------------------------------------
g----------------------------------------------------------
d--4-5-5-5-5-4-0-4-5-5-5-5-4-0-4-5-5-5-5-4-0-4-5-5-5-5-4-0-x2
a--4-5-5-5-5-4-0-4-5-5-5-5-4-0-4-5-5-5-5-4-0-4-5-5-5-5-4-0-
d--4-5-5-5-5-4-0-4-5-5-5-5-4-0-4-5-5-5-5-4-0-4-5-5-5-5-4-0-
pm--------------------------------------------------------

guitar two - build up/clean
e-1-1-1-1--------------------------------------------------
b-3-3-3-strum in a continuos pattern-----------------------
g-2-2-2-2--------------------------------------------------
d----------------------------------------------------------
a----------------------------------------------------------
d----------------------------------------------------------


then play the chorus until the end and end on the g chord

hope its ok
i tihnk its close
any comments send to kevsis@hotmail.com
Comments