Hundred Reasons - Falter Chords & Tabs

 

Falter Chords & Tabs

Hundred Reasons Chords & Tabs

Version: 5 Type: Tab 0 ratings
1 star 2 stars 3 stars 4 stars 5 stars
comments

Falter Tab

hundred reasons - falter
tabbed by kevin mcginty
i saw them live playing this and im sure this is the way the play it

dropped d tunning (but hr play tunned down a step)

7/9 means slide from 7 to 9

intro
e------------------------------------------------------------------
b------------------------------------------------------------------
g-------------6-7-------------6-7--------------6-7-------------6-7-
d-----------7---------------7-------5-------7--------5-------7-----
a---0-5-7/9---------0-5-7/9-----------5-7/9------------5-7/9-------
d-0---------------0---------------5----------------5---------------

e------------------------------------------------------------------
b------------------------------------------------------------------
g-------------6-7-------------6-7--------------6-7-------------6-7-
d-----------7---------------7-------5-------7--------5-------7-----
a---0-5-7/9---------0-5-7/9-----------5-7/9------------5-7/9-------
d-0---------------0---------------5----------------5---------------

verse
e------------------------------------------------------------------
b------------------------------------------------------------------
g-------------6-7-------------6-7--------------6-7-------------6-7-
d-----------7---------------7-------5-------7--------5-------7-----
a---0-5-7/9---------0-5-7/9-----------5-7/9------------5-7/9-------
d-0---------------0---------------5----------------5---------------
in my hands....
e------------------------------------------------------------------
b------------------------------------------------------------------
g-------------6-7-------------6-7--------------6-7-------------6-7-
d-----------7---------------7-------5-------7--------5-------7-----
a---0-5-7/9---------0-5-7/9-----------5-7/9------------5-7/9-------
d-0---------------0---------------5----------------5---------------
caress my equal....

e------------------------------------------------------------------
b------------------------------------------------------------------
g-------------6-7-------------6-7--------------6-7-------------6-7-
d-----------7---------------7-------5-------7--------5-------7-----
a---0-5-7/9---------0-5-7/9-----------5-7/9------------5-7/9-------
d-0---------------0---------------5----------------5---------------
the sound of your voice...

e-------------------------------------------------
b-------------------------------------------------
g-------------6-7-------------6-7-----------------
d-----------7---------------7-----5-5-5-5-5-5-5-5-
a---0-5-7/9---------0-5-7/9-------5-5-5-5-5-5-5-5-
d-0---------------0---------------5-5-5-5-5-5-5-5-
and im sorry...                   avoid your questions

chorus
e--------------------------------------------------------------
b--------------------------------------------------------------
g----------------------------5---------------------------------
d---5-5-5-4-5-5-5-4-5-5-5-4--5-let ring------------------------
a---5-5-5-5-3-3-3-3-2-2-2-2--3---------------------------------
d-0------------------------------------------------------------
and i'd never falter....     explain while you will

e--------------------------------------------------------------
b--------------------------------------------------------------
g----------------------------5---------------------------------
d---5-5-5-4-5-5-5-4-5-5-5-4--5-let ring------------------------
a---5-5-5-5-3-3-3-3-2-2-2-2--3---------------------------------
d-0------------------------------------------------------------
take while you can....       while we lay still


verse
e------------------------------------------------------------------
b------------------------------------------------------------------
g-------------6-7-------------6-7--------------6-7-------------6-7-
d-----------7---------------7-------5-------7--------5-------7-----
a---0-5-7/9---------0-5-7/9-----------5-7/9------------5-7/9-------
d-0---------------0---------------5----------------5---------------
a place to run....
[ Tab from: http://www.guitartabs.cc/tabs/h/hundred_reasons/falter_tab_ver_5.html ]
e------------------------------------------------------------------
b------------------------------------------------------------------
g-------------6-7-------------6-7--------------6-7-------------6-7-
d-----------7---------------7-------5-------7--------5-------7-----
a---0-5-7/9---------0-5-7/9-----------5-7/9------------5-7/9-------
d-0---------------0---------------5----------------5---------------
and piece of mind....

e------------------------------------------------------------------
b------------------------------------------------------------------
g-------------6-7-------------6-7--------------6-7-------------6-7-
d-----------7---------------7-------5-------7--------5-------7-----
a---0-5-7/9---------0-5-7/9-----------5-7/9------------5-7/9-------
d-0---------------0---------------5----------------5---------------
and in the same....

e-------------------------------------------------
b-------------------------------------------------
g-------------6-7-------------6-7-----------------
d-----------7---------------7-----5-5-5-5-5-5-5-5-
a---0-5-7/9---------0-5-7/9-------5-5-5-5-5-5-5-5-
d-0---------------0---------------5-5-5-5-5-5-5-5-
then it must be....               of closeness i guess

chorus
e--------------------------------------------------------------
b--------------------------------------------------------------
g----------------------------5---------------------------------
d---5-5-5-4-5-5-5-4-5-5-5-4--5-let ring------------------------
a---5-5-5-5-3-3-3-3-2-2-2-2--3---------------------------------
d-0------------------------------------------------------------
and i'd never falter....     explain while you will

e--------------------------------------------------------------
b--------------------------------------------------------------
g----------------------------5---------------------------------
d---5-5-5-4-5-5-5-4-5-5-5-4--5-let ring------------------------
a---5-5-5-5-3-3-3-3-2-2-2-2--3---------------------------------
d-0------------------------------------------------------------
take while you can....       while we lay still

interlude

guitar one play twice
e------------------------------------------------------------------
b------------------------------------------------------------------
g-------------6-7-------------6-7--------------6-7-------------6-7-
d-----------7---------------7-------5-------7--------5-------7-----
a---0-5-7/9---------0-5-7/9-----------5-7/9------------5-7/9-------
d-0---------------0---------------5----------------5---------------

e------------------------------------------------------------------
b------------------------------------------------------------------
g-------------6-7-------------6-7--------------6-7-------------6-7-
d-----------7---------------7-------5-------7--------5-------7-----
a---0-5-7/9---------0-5-7/9-----------5-7/9------------5-7/9-------
d-0---------------0---------------5----------------5---------------

guitar two play twice i think
e--------------------------------------------------------------
b--------------------------------------------------------------
g--------10----10----10----10----12-10-12----10----------------
d-----12----12----12----12----12----------12-------------------
a--------------------------------------------------------------
d--------------------------------------------------------------

end of interlude 

e---------------------------------------------------------------
b---------------------------------------------------------------
g----5----------------------------------------------------------
d----5-let ring-------------------------------------------------
a----3----------------------------------------------------------
d---------------------------------------------------------------

chorus once with not music

chorus

e--------------------------------------------------------------
b--------------------------------------------------------------
g----------------------------5---------------------------------
d---5-5-5-4-5-5-5-4-5-5-5-4--5-let ring------------------------
a---5-5-5-5-3-3-3-3-2-2-2-2--3---------------------------------
d-0------------------------------------------------------------
and i'd never falter....     explain while you will

e--------------------------------------------------------------
b--------------------------------------------------------------
g----------------------------5---------------------------------
d---5-5-5-4-5-5-5-4-5-5-5-4--5-let ring------------------------
a---5-5-5-5-3-3-3-3-2-2-2-2--3---------------------------------
d-0------------------------------------------------------------
take while you can....       while we lay still

here unknown (i think)

any comments etc kevsis@hotmail.com

im workin on rummus just now but im not gettin very far.
thanks
Comments