Hundred Reasons - Falter Chords & Tabs

 

Falter Chords & Tabs

Hundred Reasons Chords & Tabs

Version: 3 Type: Tab 0 ratings
1 star 2 stars 3 stars 4 stars 5 stars
comments

Falter Tab

#----------------------------------PLEASE NOTE--------------------------------#
#This file is the author's own work and represents their interpretation of the#
#song. You may only use this file for private study, scholarship, or research.#
#-----------------------------------------------------------------------------#
#-- File created with Instab - http://www.pconline.com/~smcarey/instab.html --#
#-----------------------------------------------------------------------------#

Author/Artist: Hundred Reasons
Title: Falter
Album: -
Transcribed by: Matthew Rains
Email: MANICS4@aol.com

hopefully this should be good!!! erm.....if you like it please email thanks to me cos it's nice to know i'm appreciated

------------------------------------------------------------------------------
-----------2h3-------------2h3-------------2h3-------------2h3----------------
---------2---------------2-------0-------2-------0-------2--------------------
---0-2h4-----------0-2h4-----------0-2h4-----------0-2h4----------------------
--0--------------0------------------------------------------------------------
-0-------------0---------------5---------------5------------------------------
 this is all in drop d by the way!the bit above is for the verses             
[ Tab from: http://www.guitartabs.cc/tabs/h/hundred_reasons/falter_tab_ver_3.html ]
------------------------------------------------------------------------------
------------------------------------------------------------------------------
------------------------------------------------------------------------------
-5-5-5-5-5-5-5----------------------------------------------------------------
-5-5-5-5-5-5-5----------------------------------------------------------------
-5-5-5-5-5-5-5----------------------------------------------------------------
          above comes in at the end of each verse before the chorus kicks in  

------------------------------------------------------------------------------
------------------------------------------------------------------------------
-12-12-12-11-11-12-12-12-11-11-11-12-12-12-11-11-11---------------------------
-0--0--0--0--0--0--0--0--0--0--0--0--0--0--0--0--0-----5----------------------
-10-10-10-9--9--10-10-10-9--9--9--10-10-10-9--9--9-----5----------------------
-0--0--0--0--0--0--0--0--0--0--0--10-10-10-10-10-10----5----------------------
 the bit above is the chorus. very very easy                                  

------5-----5---5-----5-----5---5------5-----5---5-----5-----5---5------------
------------------------------------------------------------------------------
----7---7-----7-----7---7-----7------7---7-----7-----7---7-----7--------------
--0-------0-------0-------0---------------------------------------------------
------------------------------------------------------------------------------
-----------------------------------5-------5-------5-------5------------------
 the bit above comes in at the end along with the verse picking bit           

Comments