Hundred Reasons - Falter Chords & Tabs

 

Falter Chords & Tabs

Hundred Reasons Chords & Tabs

Version: 2 Type: Tab 0 ratings
1 star 2 stars 3 stars 4 stars 5 stars
comments

Falter Tab

Artist: Hundred reasons
Song: Falter
Tabbed by : Ricky C (Gumbleweed@hotmail.com)

Verse/intro

Fig 1 - played twice

D ---------------------0
A ------------------4---
F ---------------4------
C -------2--4--6--------
G ----2-----------------
D -0--------------------

Fig 2 - played twice

D ---------------------0
A ------------------4---
F ----2----------4------
C -------2--4--6--------
G -0--------------------
D ----------------------

1st Chorus
[ Tab from: http://www.guitartabs.cc/tabs/h/hundred_reasons/falter_tab_ver_2.html ]
D------------------------------------------------
A------------------------------------------------
F------------------------------------------------
C--7--7--7--6--6--6--6--6--7--7--7--6--6--6--6--6
G--------------------------5--5--5--5--5--5--5--5
D--0--0--0--0--0--0--0--0------------------------

Then...

D--------------------------0---------------------
A--------------------------3---------------------
F--------------------------2---------------------
C--7--7--7--6--6--6--6--6--0---------------------
G--4--4--4--4--4--4--4--4------------------------
D------------------------------------------------



Comments