Hundred Reasons - Cerebra Chords & Tabs

 

Cerebra Chords & Tabs

Hundred Reasons Chords & Tabs

Version: 2 Type: Tab 0 ratings
1 star 2 stars 3 stars 4 stars 5 stars
comments

Cerebra Tab

Song title: Cerebra
Artist: Hundred Reasons
Tabbed by: Ricky C (Gumbleweed@hotmail.com)


the second guitar either plays the same thing or the intro. this is in dropped d tuning

intro:
                                                          main bit of intro
e|------------------------|-----7---7---7---7---7---7---7---7---7--7--7--7--7--7--7--7----|
b|---10-10-10-10-10-10-10-|-----10--10--10--10--10--10--10--10--8--8--8--8--8--8--8--8----|
g|------------------------|-----7---7---7---7---7---7---7---7---7--7--7--7--7--7--7--7----|
d|------------------------|---------------------------------------------------------------|   main bit x4
a|------------------------|---------------------------------------------------------------|
d|------------------------|---------------------------------------------------------------|
   this part is played
   underneath   next section
   by 2nd guitar

verse:

e|------------------------------------------------------------------------------------|
b|------------------------------------------------------------------------------------|
g|--7-7-7-7-7-7-7-7-7-7---x-x-x--7-7-7-7-7-7-7-7-7-7--x-x-x----9-9-9-9----------------|
d|--7-7-7-7-7-7-7-7-7-7---x-x-x--7-7-7-7-7-7-7-7-7-7--x-x-x----9-9-9-9-10--12-12-12-12|      x2
a|--5-5-5-5-5-5-5-5-5-0---x-x-x--5-5-5-5-5-5-5-5-5-0--x-x-x----7-7-7-7--8--10-10-10-10|
d|------------------------------------------------------------------------------------|

second guitar plays main bit of intro under the verse

chorus:
[ Tab from: http://www.guitartabs.cc/tabs/h/hundred_reasons/cerebra_tab_ver_2.html ]
e|--------------------------------------------------------------------------------------------------|
b|--------------------------------------------------------------------------------------------------|
g|-7-7-7-7-7-7-7-7-10-12-12-12-12-12--------------------7-7-7-7-7-7-7-7-10--------------------------|x2
d|-7-7-7-7-7-7-7-7-10-12-12-12-12-12---10-10-10-10-10---7-7-7-7-7-7-7-7-10--------------------------|
a|-5-5-5-5-5-5-5-5--8-10-10-10-10-10---10-10-10-10-10---5-5-5-5-5-5-5-5--8---10-10-10-10-10-10-10---|
d|-------------------------------------10-10-10-10-10------------------------10-10-10-10-10-10-10---|


verse x3 ( first time is with just drums)

chorus x2


break:

e|---------------------------------------|
b|---------------------------------------|
g|---------------------------------------|       x4
d|--7-7-7-7-7-7-7-7-----8-8-8-8-8-8-8-8--|
a|--5-5-5-5-5-5-5-5-----5-5-5-5-5-5-5-5--|
d|---------------------------------------|

intro is played underneath by second guitar


middle:

e|-------------------------------------------------------------------------------------------|
b|-------------------------------------------------------------------------------------------|
g|------------------------------------0------------------12------------12--------------------|
d|---------9-----------0--------0-------0---------12--------12-------------12--------12------|             x4
a|-----9-----9-----0------0-------------------10-----------------10------------10------------|
d|--9-----------0----------------------------------------------------------------------------|


then plays middle x4 again but much less distortion


heavier bit

e|---------------------------------------------------------------|
b|---------------------------------------------------------------|
g|---------------------------------------------------------------|
d|---9-9-9-9-9-9---0-0-0-0-0-0----12-12-12-12-12-12-12-12--12-12-|      x12
a|---9-9-9-9-9-9---0-0-0-0-0-0----10-10-10-10-10-10-10-10--10-10-|
d|---9-9-9-9-9-9---0-0-0-0-0-0-----------------------------------|

middle x2 ( less distorted part)
Comments