Humble Pie - Take Me Back Chords & Tabs

 

Take Me Back Chords & Tabs

Humble Pie Chords & Tabs

Version: 1 Type: Tab 0 ratings
1 star 2 stars 3 stars 4 stars 5 stars
comments

Take Me Back Tab

   
#----------------------------------PLEASE NOTE---------------------------------#
#This file is the author's own work and represents their interpretation of the #
#song. You may only use this file for private study, scholarship, or research. #
#------------------------------------------------------------------------------#

ARTIST: Humble Pie
SONG: Take Me Back
ALBUM: Town And Country, 1969
FROM: Lukas Lechner, Woergl, Austria
E-MAIL: luggi69@web.de
DATE: Sep 10 2001



This is dedicated to Brigitte.




TAKE ME BACK
°°°°°°°°°°°°°°°°°°°°°°°°°°
writtten by Peter Frampton


Intro:
G       G
e------------------------------------3----
B-----------------------12-----------3----
G-----------------------12-----------4----
D-----------------------12-----------5----
A--------5-7-10-12~~~---10-----------5----
E--3-5-7-----------------------0-1-2-3----

~~~...hold noteduring the song Peter or Steve
plays this riff before
F C G  a few timeshe plays G sometimes,
listen to the record
and you will know what I mean.


----------------------------------------------------------------------------------------------


ARTIST: Humble Pie
SONG: 30 Days In The Hole
ALBUM: Smokin', 1972
FROM: Lukas Lechner, Woergl, Austria
E-MAIL: luggi69@web.de
DATE:  Sat, 20 Oct 2001





30 Days In The Hole (chords)
_________________________
written by Steve Marriott


                                                               
used chords:

     D    a   E      B    E var   a var   D var
         
E---------------------------------------------------------
B----7----10-----9------4-----5------2-------3------------
G----7----9------9------4-----4------2-------2------------
D----7----11-----9------4-----6------2-------4------------
A---------------------------------------------------------
E---------------------------------------------------------


Intro:   D E     D E    a  E      a  E


----------------------------------------------------------------------------------------------


DOWN HOME AGAIN
°°°°°°°°°°°°°°°°°°°°°°°°°°
writtten by Steve Marriott


[ Tab from: http://www.guitartabs.cc/tabs/h/humble_pie/take_me_back_tab.html ]
Riff:
e--------------------------
B--------------------------
G------2----2----2----2----
D---2h4--2h4--2h4--2h4----- couple of times
A--------------------------
E--------------------------



----------------------------------------------------------------------------------------------


HOT 'N' NASTY
°°°°°°°°°°°°°°°°°°°°°°°°°°°°°°°°°°°°
writtten by Steve Marriott & The Pie

used chords:     (take the ones that provide the shortest way on the fret board)

   C and C   F and  F   Bb and Bb  Eb  G  F#

e--8---------1-----------6-------------3--2---
B--8-----5---1-----10----6------3--8---3--2---
G--9-----5---2-----10----7------3--8---4--3---
D--10----5---3-----10----8------3--8---5--4---
A--10----3---3-----8-----8------1--6---5--4---
E--8---------1-----------6-------------3--2---


---------------------------------------------------------------------------------------------------


FROM: Lukas Lechner, Woergl, Austria
E-MAIL: luggi69@web.de
DATE: 21 Jun 2001
ARTIST: Humble Pie
SONG: Shine On
ALBUM: Rock On, 1970


Shine On
^^^^^^^^^^^^^^^^^^^^^^^^^^
writtten by Peter Frampton

Riff1:

e:--------------
B:--------------
G:--------------
D:--------------
A:--------------
E:--0-0-2-3-4---

Riff2:

e:------------------------------
B:------------------------------
G:------------------------------
D:------------------------------
A:----------------------5-6-7---
E:--0-0-2-3-4-4-5-6-7-7---------


Intro:  D  a    D  a    G  D    G  D    D  a    D  a    G  D    G  D

a  a  a D     a  a  a D




_________________________________________________________
Corrections, questions, comments and suggestions are    |
always welcome, just mail me        |
________________________________________________________|
"Won't you tell me, where have all the good times gone?"|
-Ray Davies, 1965|
________________________________________________________|
"...enjoy a time when rock was still about making music |
for fun, not money for corporations."|
________________________________________________________|                                                         
Comments