Human Poison - Enemy Chords & Tabs

 

Enemy Chords & Tabs

Human Poison Chords & Tabs

Version: 1 Type: Tab 0 ratings
1 star 2 stars 3 stars 4 stars 5 stars
comments

Enemy Tab

--------------------------------------------------------
--------------------------------------------------------
              HUMAN POISON - ENEMY
--------------------------------------------------------
--------------------------------------------------------
band: Human Poison
song: Enemy
tabbed by: Michiel aka God²

Strofe
|-------------------------------------------------------|
|-------------------------------------------------------|
|-------------------------------------------------------|
|---7-7------------7-7------------7-7-------------1--4--|
|---7-7------------7-7------------7-7-------------1--4--|
|---5-5-5X-5X-5X---5-5-5X-5X-5X---5-5-5X-5X-5X----3--6--| X= overtune

[ Tab from: http://www.guitartabs.cc/tabs/h/human_poison/enemy_tab.html ]
prechorus
|-------------------------------------------------------|
|-------------------------------------------------------|
|-------------------------------------------------------|
|---7-7-7-7---1-1-1-1---4-4-4-4-------------------------|
|---7-7-7-7---1-1-1-1---4-4-4-4-------------------------|
|---5-5-5-5---3-3-3-3---6-6-6-6------slide-22-----------|palm mute


chorus
|-------------------------------------------------------|
|-------------------------------------------------------|
|-------------------------------------------------------|
|---7-7-7-7---1-1-1-1---4-4-4-4-------------------------|
|---7-7-7-7---1-1-1-1---4-4-4-4-------------------------|
|---5-5-5-5---3-3-3-3---6-6-6-6-------------------------| 4X

strofe
prechorus
chorus
strofe
prechorus
chorus

after this, play the chorus muted, it's like a part to relax...
very easy song but cool to play i think ENJOY
any questions or comments: violent_reaction@hotmail.com
visit: http://www.humanpoison.cjb.net
*GOD²*
Comments