Hum - Stars Chords & Tabs

 

Stars Chords & Tabs

Hum Chords & Tabs

Version: 3 Type: Tab 0 ratings
1 star 2 stars 3 stars 4 stars 5 stars
comments

Stars Tab

-----------------------------------------------------------------------
STARS by: HUM
-----------------------------------------------------------------------

Tabbed by: Scott Sommers (Cyclops)
Email: scott_sommers_Cyclops@hotmail.com

Tuning: Drop D

NOTES: An oldie, but with a lot of fun riffs. In addition, if played right,
with a full band, it sounds incredible. (It is the only good song they put out
in my opinion.)

STUMMING NOT INCLUDED, LISTEN TO THE SONG

INTRODUCTION

e|---7---|--7--|--2-|-------------------------------------------------|
B|---7---|--7--|--3-|-------------------------------------------------|
G|---7---|--7--|--2-|----REPEAT-TWICE---------------------------------|
D|---7---|--7--|--0-|-------------------------------------------------|
A|---0h5-|--4--|----|-------------------------------------------------|
E|---0h5-|--4--|----|-------------------------------------------------|

FILL		MAIN RIFF/VERSE
[ Tab from: http://www.guitartabs.cc/tabs/h/hum/stars_tab_ver_3.html ]
e|-----|-------|------------------------------------------------------|
B|-----|-------|------------------------------------------------------|
G|--11-|---9---|-11-S--23---------------------------------------------|
D|--x--|-------|-x--S--X----------------------------------------------|
A|--9--|-7---7-|-9--S--21---------------------------------------------|
E|-----|-------|------------------------------------------------------|

CHORUS

e|-7-|-7-|-PALM---|-7-|-7-|----------|--------------------------------|
B|-7-|-7-|-MUTE---|-7-|-7-|----------|--------------------------------|
G|-7-|-7-|--------|-7-|-7-|-11-S--23-|-REPEAT 3X, THEN 4TH TIME 24----|
D|-7-|-7-|-0-2-0--|-7-|-7-|-X--------|--------------------------------|
A|-5-|-4-|-0-2-0--|-5-|-4-|-9--------|--------------------------------|
E|-5-|-4-+-0-2-0--|-5-|-4-|----------|--------------------------------|

‘SOLO’ … PALM MUTE THE WHOLE TIME

e|--------------------------------------------------------------------|
B|--------------------------------------------------------------------|
G|--------------------------------------------------------------------|
D|--------------------------------------REPEAT AS NECESSARY-----------|
A|-----5-----------5-----------5-7------------------------------------|
E|-0-7---7-0-7-0-7---7-0-7-0-7----------------------------------------|

LEGEND
S – SLIDE
H - HAMMER
Comments