Hum - Iron Clad Lou Chords & Tabs

 

Iron Clad Lou Chords & Tabs

Hum Chords & Tabs

Version: 1 Type: Bass Tab 0 ratings
1 star 2 stars 3 stars 4 stars 5 stars
comments

Iron Clad Lou Bass Tab

   
IRON CLAD LOU by Hum

Drop-D Tuning

I'm very sure about everything except the intro: 

Intro:

D|---------2--4---4-4-2-2---0---------2--4---4-4-2-2---0---------
A|----2-0-------------------------2-0----------------------------
d|-0----------------------------0--------------------------------


D|---------2--4---4-4-2-2---0---------2--4---4-4-2-2---0---------
A|----2-0-------------------------2-0----------------------------
d|-0---------------------------0---------------------------------


G|----------2-4-5-4-4-4-4-2-0----------2-4-5-4-4-4-4-2-0 
D|---------------------------------------------------------------
A|----2-0--------------------------2-0--------------------------- 
d|-0-----------------------------0-------------------------------

[ Tab from: http://www.guitartabs.cc/tabs/h/hum/iron_clad_lou_btab.html ]
D|---------2--4---4-4-2-2---0---------2--4---4-4-2-2---0---------
A|----2-0-------------------------2-0----------------------------
d|-0----------------------------0--------------------------------


Verse:
A|-----------------5--7--7-7-7-7-7------------------5--7--7-7-7-7-7- 
d|--0-2-0--0----------------------------0-2-0--0--------------------


Chorus 1:
d|--0--0-0--2--2-2-4-4-4--2--2-2-2--0--0-0--2--2-2-4-4-4--2--2-2-2-


Chorus 2: 
D|--2--2-2--4--4-4-6-6-6--4--4-4-4--2--2-2--4--4-4-6-6-6--4--4-4-4-


Bridge:
A|---5-7---5-7---5-7---5-7---5-7---5-7---5-7---5-7- 
d|-0-----0------0----0-----0-----0-----0-----0------- 


Outro note: 
A|-----2 (B note) 


How it goes:

Intro + Outro note; Verse (4x); Chorus 1; Verse (4x); Chorus 1 (2x); Chorus 2;
Verse (4x); Chorus 1 (2x); Chorus 2 (2x) + Outro note; Bridge (16x); Chorus 2
(2x) + outro note.

Tabbed by Matt Hamann
E-mail me at matt1@jps.net or gartuck@hotmail.com
Homepage: http://www.jps.net/matt1/index.html

Comments