Hum - Green To Me Chords & Tabs

 

Green To Me Chords & Tabs

Hum Chords & Tabs

Version: 2 Type: Tab 0 ratings
1 star 2 stars 3 stars 4 stars 5 stars
comments

Green To Me Tab

#----------------------------------PLEASE NOTE--------------------------------#
#This file is the author's own work and represents their interpretation of the#
#song. You may only use this file for private study, scholarship, or research.#
#-----------------------------------------------------------------------------#

Date: Tue, 28 Apr 1998 19:03:54 EDT
From: DKowal30 
Subject: h/hum/green_to_me.tab

HUM
Green to Me
Downward is Heavenward

Tuning : Droppped D
Tabbed by : a5525@erols.com and DKowal30@aol.com

KEY :
* * - Harmonics
/ or \  slides
pm --  Palm Mute

Intro (Harmonics)
E----------------------|
B----------------------|
G----------------------|
D----------------------|
A--(9)--(9)--(9)--(9)--|
D--*9*--*9*--*9*--*9*--|


E-------------------|
B-------------------|
G---12-/11---7-\9---|
D-------------------|
A---10-/-9---5-\7---|
D-------------------|

Main Part

E-----------------------------------------------------------------|
B-----------------------------------------------------------------|
G--------7-\-9-/-7---------7-\-9-/-7--------------12-/11---7-\-9--|
D--0--0--------------0--0-------------5--x--x--5------------------|
A--0--0--5-\-7-/-5---0--0--5-\-7-/-5--5--x--x--5--10-/-9---5-\-7--|
D--0--0--------------0--0-------------5--x--x--5------------------|
      pm             pm-->




E----------------------------------------|--------------------|
B----------------------------------------|--------------------|
G--------------------------------7/9\7---|--------------------|
D--0-0-0-0--2--0-0--2--0-0-0-0-----------|--------------------|
A--0-0-0-0--0--0-0--0--0-0-0-0---5/7\5---|--5-5-5-5--5-5-5----|
D--0-0-0-0--0--0-0--0--0-0-0-0-----------|--5-5-5-5--5-5-5----|
 PM--------------------------->          pm-------------->


during the solo and many other parts a rhythym guitar does this:
E--------------------------|       |------------------------|
B--------------------------|       |------------------------|
G--5-/-7--7--5-/-7-\-5--5--|       |------------------------|
D--5-/-7--7--5-/-7-\-5--5--|   or  |-------------5-5-5-5-5--|
A--3-/-5--5--3-/-5-\-3--3--|       |--0-0-0-0-0--5-5-5-5-5--|
D--------------------------|       |--0-0-0-0-0--5-5-5-5-5--|

[ Tab from: http://www.guitartabs.cc/tabs/h/hum/green_to_me_tab_ver_2.html ]
Solo chords < pretty much a run up then back down, listen to the song for the timing >

E-----------------------------------|
B-----------------------------------|
G--7--9--11--12--14--12--11--12--9--|
D-----------------------------------|
A--5--7--9---10--12--10---9--19--7--|
D-----------------------------------|

                        ===========================

Green to Me- by Hum

tabbed by Me957@aol.com



Solo 1
                                       ^-1/2 step
e----------------------------------------------------------------
b----------------------------------------------------------------
g--------------------------------------------------------------6-
d-4-2-4-2-4-7---7-7-7-9-9-7--4-4-4-5-4---------4-5-4--2--2-7-7---
a--------------------------------------2--2-2--------------------
e----------------------------------------------------------------
		
e--------------------------------------------
b-----------------------10-------------10----
g--9-9-9-6------9-11-11----11--9-11-11----11-
d-----------7--------------------------------
a--------------------------------------------
e--------------------------------------------




                          LYRICS
                          ======

The morning image from the satellites is all blue and green
and we've all got wounds to clean
here's a rag,   here's some gasoline

she wakes up fine and rested well
released at last from in the sleeping cell
breathing comes with ease
it's a sweet revenge
built on a chemical ride
my medicine man is the best
wires to the temples,  place them on
let's see how we sound

It's all Green to Me
what a sweet revenge
It's all Green to Me

see them lift off one by one
I see a cool spot here let's bring her down
pedal to the ground
a lovely mess  that I am blessed to see.....of me..

she lifts her wings up high
sensors show a lifetime until we die
all the dreams, details
perfected in the colored sky

The morning image from the satellites is all blue and green
and we've all got wounds to clean
here's a rag, here's some gasoline

It's all Green to Me
It's all Green to Me
It's all Green to Me


          For all the Hum tabs you can stand, check out :
                http://members.aol.com/dkow/
Comments