Huevos Rancheros - The Lonely Bull Chords & Tabs

 

The Lonely Bull Chords & Tabs

Huevos Rancheros Chords & Tabs

Version: 1 Type: Tab 0 ratings
1 star 2 stars 3 stars 4 stars 5 stars
comments

The Lonely Bull Tab

   
#----------------------------------PLEASE NOTE--------------------------------#
#This file is the author's own work and represents their interpretation of the#
#song. You may only use this file for private study, scholarship, or research.#
#-----------------------------------------------------------------------------#

From: "Mike" 
Subject: h/huevos_rancheros/the_lonely_bull.tab
Date: 	Thu, 16 Apr 1998 14:03:52 -0700

/---------------------------\ The Lonely Bull /---------------------------\
| As performed by the Huevos Rancheros on their LP, "Get Outta Dodge."    |
| Transcribed by Mike Eheler (kcobain13@hotmail.com).                     |
| Feel free to send comments. :)                                          |
>------------------------------< Comments! >------------------------------<
| This song is awesome, a great little song that I decided to sit down    |
| and TAB one day. Actually, this song is responsible for being one of    |
| my main inspirations into teaching myself to play guitar. So anyways    |
| enjoy the song and email me. Bye for now!                               |
| PS - Don't forget to check out my other works like the Green Day Nimrod |
|      TAB book!                                                          |
\-------------------------------------------------------------------------/

Tuning: Standard
Tempo: Quickly (about 120-144)
Sound: Slightly distorted guitar.

INTRO                G       A
E|-----------------|-----------------|
B|-----------------|-----------------|
G|-----------------|-0-------2-------|
D|-----------------|-0-------2-------|
A|-------0---------|-2-------0-------|
E|-0-0-0-----------|-3---------------|
               D                 A                 G                 A
E|-----------------|-----------------|-----------------|-----------------|
B|-2-3-5-3\2---3---|-----------------|-------------3---|-----------------|
G|-------------2---|-------0-2h4-2---|---------2---0---|-------------2---|
D|-------------0---|-------------2---|-2-----2---2-0---|-----0---2h4-2---|
A|-----------------|-------------0---|-------------2---|-------------0---|
E|-----------------|-----------------|-----------------|-----------------|
               D                                   A
E|-----------------|-----------------|-----------------|-----------------|
B|-2-3-5-2t3---3---|---------3-------|-1-------0-------|-----------------|
G|-------------2---|-------2-------2-|-------1-----2---|-----------------|
D|-------------0---|-------------3---|-----2-------2---|-----------------|
A|-----------------|-----------------|-------------0---|-------------0---|
E|-----------------|-----------------|-----------------|---------3-------|

VERSE 1
               D                 A                 G                 A
E|-----------------|-----------------|-----------------|-----------------|
B|-2-3-5-2t3---3---|-----------------|-------------3---|-----------------|
G|-------------2---|-------0-2h4-2---|---------2---0---|-------------2---|
D|-------------0---|-------------2---|-2-----2---2-0---|-----0---2h4-2---|
A|-----------------|-------------0---|-------------2---|-------------0---|
E|-----------------|-----------------|-----------------|-----------------|
               D                 F         E       A
E|-----------------|-----------------|-----------------|-----------------|
B|-2-3-5-2t3---3---|---------3-------|-1-------0-------|---2-------------|
G|-------------2---|-------2-------2-|-------1-----2---|-----2-------2---|
D|-------------0---|-------------3---|-----2-------2---|-------------2---|
A|-----------------|-----------------|-------------0---|-------------0---|
E|-----------------|-----------------|-----------------|-----------------|
[ Tab from: http://www.guitartabs.cc/tabs/h/huevos_rancheros/the_lonely_bull_tab.html ]
CHORUS 1
   D           A                 C                 A
E|-2---------------|-----------------|-----------------|-----------------|
B|-----3---2-0-----|-----------------|---1-------------|---3-2-----------|
G|-------------2---|-----------------|---0-------------|-------2---------|
D|-----------------|-2-------2-------|---2-----2-------|---------2-------|
A|-----------------|-------------3---|-------------0---|-----------0-----|
E|-----------------|-----------------|-----------------|-----------------|
   D           A                 C                 E
E|-2---------------|-----------------|---3-------------|-----------------|
B|-----3---2-0-----|-----------------|---1-------------|-----------------|
G|-------------2---|-----------------|-0---------------|-----------------|
D|-----------------|-2-------2-------|-2-------2-------|-----------------|
A|-----------------|-------------3---|-------------2-2-|-2-2-2-2-2-2-2---|
E|-----------------|-----------------|-------------0-0-|-0-0-0-0-0-0-0---|

VERSE 2

E|-9-10-12-9t10--------|---------------------|------------------|--------|
B|----------------12---|--------12------10---|---------10---8---|--------|
G|---------------------|-12----------12------|-9-----9----9-----|--------|
D|---------------------|---------------------|------------------|--------|
A|---------------------|---------------------|------------------|--------|
E|---------------------|---------------------|------------------|--------|

E|-9-10-12-9t10--------|---------------------|-------------------|-------|
B|----------------12---|--------12------10---|-10---9p7-9--/10---|-------|
G|---------------------|-12----------12------|-------------------|-------|
D|---------------------|---------------------|-------------------|-------|
A|---------------------|---------------------|-------------------|-------|
E|---------------------|---------------------|-------------------|-------|

CHORUS 2

E|-----------------|-----------------|-----------------|-----------------|
B|-----------------|---3-2-----------|-----------------|---3-2-----------|
G|-----------------|-------2---------|-----------------|-------2---------|
D|-4---0-----------|---------2-------|-----------------|---------2-------|
A|---------4-2-0---|------------/3---|---3-3---2-0-0---|-----------------|
E|-----------------|-0---------------|-----------------|-----------------|
                                                   E                 G
E|-----------------|-----------------|-----------------|-----------------|
B|-----------------|---3-2-----------|-----------------|-----------------|
G|-----------------|-----------------|-----------------|-----------------|
D|-4---0-----------|-----------------|-----------------|-----------------|
A|---------4-2-0---|-----------------|-------------2-2-|-2-2-2-2-2-2-5-5-|
E|-----------------|-0----------/3---|---3-2---2---0-0-|-0-0-0-0-0-0-3-3-|

E|-----------------|
B|-----------------|
G|-----------------|
D|-----------------|
A|-5-5-5-5-5-5-5---|
E|-3-3-3-3-3-3-3---|

OUTRO

E|-10-11-13-10t11--------|----------------|
B|------------------13---|----------------|
G|-----------------------|-13-------------|
D|-----------------------|----------------|
A|-----------------------|----------------|
E|-----------------------|----------------|

E|-10-11-13-10t11--------|-----------------|
B|------------------13---|-----------------|
G|-----------------------|-13-13-----------|
D|-----------------------|-----------------|
A|-----------------------|-----------------|
E|-----------------------|-----------------|

E|-10-11-13-10t11--------|-----------------|
B|------------------13---|-----------------|
G|-----------------------|-13-13-----------|
D|-----------------------|-----------------|
A|-----------------------|-----------------|
E|-----------------------|-----------------|

E|-10-11-13-10t11--------|----------------/10---|----------------10---|--|
B|------------------13---|------13--13--13/11---|---11-10p8-10--/11---|--|
G|-----------------------|-13-------------------|---------------------|--|
D|-----------------------|----------------------|---------------------|--|
A|-----------------------|----------------------|---------------------|--|
E|-----------------------|----------------------|---------------------|--|

Layout:
INTRO
VERSE 1 X2
CHORUS 1
VERSE 1
VERSE 2
CHORUS 2
OUTRO


Comments