Huevos Rancheros - Night Of The Iguana Chords & Tabs

 

Night Of The Iguana Chords & Tabs

Huevos Rancheros Chords & Tabs

Version: 1 Type: Tab 0 ratings
1 star 2 stars 3 stars 4 stars 5 stars
comments

Night Of The Iguana Tab

   
#----------------------------------PLEASE NOTE--------------------------------#
#This file is the author's own work and represents their interpretation of the#
#song. You may only use this file for private study, scholarship, or research.#
#-----------------------------------------------------------------------------#

Date: Tue, 14 Apr 1998 23:58:38 -0700
From: Mike 
Subject: /h/huevos_rancheros/night_of_the_iguana.tab

| As performed by the Huevos Rancheros on their LP, "Get Outta Dodge."    |
| Transcribed by Mike Eheler (kcobain13@hotmail.com).                     |
| Feel free to send comments. :)                                          |

Tuning: Standard
Tempo: Quickly (about 120-144)
Sound: Distorted Guitar. Note that the Rancheros play a Gibson style guitar.
Notes: This song is in 6/8 time. So instead of counting 1, 2, 3, 4. You
count
       1, 2, 3, 2, 2, 3 as there are 2 beats per measure, each beat
containing
       a triplet.

E|-------------|-------------|-------------|-------------|
B|-------------|-------------|-------------|-------------|
G|-------------|-------------|-------------|-------------|
D|-------------|-------------|-------------|-------------|
A|-3-----3-----|-5---------5-|-3-----------|-----------5-|
E|-1-----1-----|-3-----------|-----5-3---0-|-3-----------|
   Rhy. Fig. 1
E|-------------|-------------|-------------|-------------|
B|-------------|-------------|-------------|-------------|
G|-------------|-------------|-------------|-------------|
D|-------------|-------------|-------------|-------------|
A|-3-----------|-----------5-|-3-----------|-------------|
E|-----5-3---0-|-3-----------|-----5-3---0-|-3-----------|

E|-------------|-------------|-------------|-------------|
B|-------------|-------------|-------------|-------------|
G|-------------|-------------|-------------|-------------|
D|-------------|-------------|-------------|-------------|
A|-3-----3-----|-5---------5-|-3-----------|-----------5-|
E|-1-----1-----|-3-----------|-----5-3---0-|-3-----------|

E|-------------|-------------|-------------|-------------|
B|-------------|-------------|-------------|-------------|
G|-------------|-------------|-------------|-------------|
D|-------------|-------------|-3-----3-----|-5---------5-|
A|-3-----------|-------------|-1-----1-----|-3-----------|
E|-----5-3---0-|-3-----------|-------------|-------------|

E|-------------|-------------|-------------|-------------|
B|-------------|-------------|-------------|-------------|
G|-------------|-------------|-------------|-------------|
D|-3-----------|-----------5-|-3-----------|-------------|
A|-----5-3---0-|-3-----------|-----5-3---0-|-3-----------|
E|-------------|-------------|-------------|-------------|

E|-------------|-------------|-------------|-------------|
B|-------------|-------------|-------------|-------------|
G|-------------|-------------|-------------|-------------|
D|-------------|-------------|-------------|-------------|
A|-3-----3-----|-5---------5-|-3-----------|-----------5-|
E|-1-----1-----|-3-----------|-----5-3---0-|-3-----------|
[ Tab from: http://www.guitartabs.cc/tabs/h/huevos_rancheros/night_of_the_iguana_tab.html ]
E|-------------|-------------|-------------|-------------|
B|-------------|-------------|-------------|-------------|
G|-------------|-------------|-------------|-1-----1-----|
D|-------------|-------3-----|-5-----3-----|-------------|
A|-3-----------|-5-----------|-------------|-------------|
E|-----5-3-----|-------------|-------------|-------------|

E|-------------|-------------|-------------|-------------|
B|-------------|-------------|-------------|-------------|
G|-------------|-------------|-------------|-------------|
D|-5---3-------|-------------|-------------|-------------|
A|-------5---0-|-5-----------|-----------3/|-5-----------|
E|-------------|-3-----------|-----------1/|-3-----------|

E|-------------|-------------|-------------|-------------|
B|-------------|-------------|-------------|-------------|
G|-------------|-------------|-------------|-------------|
D|-------------|-------------|-------------|-------------|
A|-----------3/|-5-----------|-----------3/|-5\----------|
E|-----------1/|-3-----------|-----------1/|-3\----------|
                                                     End
Play Rhy. Fig. 1
Play Rhy. FIg. 1 w/ Improv Solo (I just use a standard
  pentatonic scale when playing this one, plus there's
  basically only one chord to play over - G, with the
  occasional F)

E|-------0-----|-------2-----|-------3-----|-----5-5\----|
B|-------0-----|-------2-----|-------3-----|-----5-5\----|
G|-------------|-------------|-------------|-------------|
D|-2-----------|-4-----------|-5-----------|-7-----------|
A|-2-----------|-4-----------|-5-----------|-7-----------|
E|-0-----------|-2-----------|-3-----------|-5-----------|
   Rhy. Fig. 2                                       End

Repeat Rhy. Fig. 2 twice.

E|-7-7-7-7-7-7-|-6-6-6-6-6-6-|-7\----------|-------------|
B|-7-7-7-7-7-7-|-6-6-6-6-6-6-|-7\----------|-------------|
G|-------------|-------------|-------------|-------------|
D|-------------|-------------|-------------|-------------|
A|-------------|-------------|-------------|-----------3/|
E|-------------|-------------|-------------|-----------1/|

E|-------------|-------------|-------------|-------------|
B|-------------|-------------|-------------|-------------|
G|-------------|-------------|-------------|-------------|
D|-------------|-------------|-------------|-------------|
A|-5-----------|-------------|-------------|-----------3/|
E|-3-----------|-----------1/|-3-----------|-----------1/|

E|-------------|-------------|-------------|-------------|
B|-------------|-------------|-------------|-------------|
G|-------------|-------------|-------------|-------------|
D|-------------|-------------|-------------|-------------|
A|-5-----------|-----------3/|-5\----------|-------------|
E|-3-----------|-----------1/|-3\----------|-------------|

Repeat Rhy. Fig. 1

E|-------------|-------------|-------------|-------------|
B|-------------|-------------|-------------|-------------|
G|-------------|-------------|-------------|-------------|
D|-------------|-------------|-------------|-------------|
A|-3-----3-----|-5-----------|-------------|-------------|
E|-1-----1-----|-3-----------|-------------|-------------|

Comments