Huevos Rancheros - Interstate Death Toll Chords & Tabs

 

Interstate Death Toll Chords & Tabs

Huevos Rancheros Chords & Tabs

Version: 1 Type: Tab 0 ratings
1 star 2 stars 3 stars 4 stars 5 stars
comments

Interstate Death Toll Tab

   
#----------------------------------PLEASE NOTE--------------------------------#
#This file is the author's own work and represents their interpretation of the#
#song. You may only use this file for private study, scholarship, or research.#
#-----------------------------------------------------------------------------#

Date: Thu, 2 Apr 1998 15:42:02 -0800
From: Mike 
Subject: h/huevos_rancheros/interstate_death_toll.tab

/------------------------\ Interstate Death Toll /------------------------\
| As performed by the Huevos Rancheros on their LP, "Get Outta Dodge."    |
| Transcribed by Mike Eheler (kcobain13@hotmail.com).                     |
| Feel free to send comments. :)                                          |
\-------------------------------------------------------------------------/

This song was featured on a Molson Canadian Beer commercial. With Don Ho. :)
If you saw it, it was the one where there's the ultimate party on the roof
in Vancouver.

Song   : Interstate Death Toll
Artist : Huevos Rancheros;
	   Guitar : Brent J. Cooper
	   Bass   : Cantankerous Tom
	   Drums  : Richie Ranchero
Album  : "Get Outta Dodge"
Tuning : Standard
Tempo  : Fast (about 140-160)
Sound  : Distorted Guitar

RIFF A
E|-----------------|-----------------|-----------------|-----------------|
B|-----------------|-----------------|-----------------|-----------------|
G|-4---------------|-----------------|-----------------|---------4-4-4-4-|
D|-4-4-4-4-4-4-4-4-|-4-4-4-4-4-4-4-4-|-4-4-4-4-4-4-4-4-|-4-4-4-4-4-4-4-4-|
A|-2-2-2-2-2-2-2-2-|-2-2-2-2-2-2-2-2-|-2-2-2-2-2-2-2-2-|-2-2-2-2-2-2-2-2-|
E|-----------------|-----------------|-----------------|-----------------|

RIFF B
E|-----------------|-----------------|
B|-----------------|-----------------|
G|-----------------|-----------------|
D|-----0-0-----2-2-|-----3-3-2-2-0---|
A|-2-2-----2-2-----|-2-2-----------3-|
E|-----------------|-----------------|
[ Tab from: http://www.guitartabs.cc/tabs/h/huevos_rancheros/interstate_death_toll_tab.html ]
RIFF C
E|-----------------|-----------------|
B|-------1---------|-------1---------|
G|-2-----2---------|-2-----2---------|
D|-2-----2---------|-2-----2---------|
A|-0---0-0---------|-0---0-0---------|
E|-----------------|-----------------|

RIFF D
E|-----------------|-----------------|
B|-----------------|-----------------|
G|-----------------|-----------------|
D|-----------------|-----------------|
A|---------2-2-0---|-3-3-2-2-0-0-----|
E|-0-0-4-4-------4-|-------------4-4-|

RIFF E
E|-----------------|-----------------|
B|-------1---------|-1---1---1---1---|
G|-2-----2---------|-2---2---2---2---|
D|-2-----2-----2-2-|-2---2---2---2---|
A|-0---0-0-----0-0-|-0---0---0---0---|
E|-----------------|-----------------|

RIFF F
E|-----------------|-----------------|
B|-3---3-3---3-3---|-1-----2---2-2-2-|
G|-2---2-2---2-2-0-|-0---0-2---2-2-2-|
D|-0---0-0---0-0-0-|-2---0-2---2-2-2-|
A|-----------------|-3-----0---0-0-0-|
E|-----------------|-----------------|

RIFF G
E|-----------------|-----------------|
B|-----------------|-----------------|
G|-----------------|-----------------|
D|-----------------|-----------------|
A|---------2-2-0---|-0---------------|
E|-0---4-4-------4-|-----------------|

RIFF H
E|-----------------|-----------------|-----------------|-----------------|
B|-----------------|-----------------|-----5-5-4-4-3-3-|-----5-5-4-4-3-3-|
G|-----------------|-----------------|-4-4-------------|-4-4-------------|
D|-----4-4-3-3-2-2-|-----4-4-3-3-2-2-|-----------------|-----------------|
A|-2-2-------------|-2-2-------------|-----------------|-----------------|
E|-----------------|-----------------|-----------------|-----------------|

Song Layout:
RIFF A x1
RIFF B x4
RIFF C x1
RIFF B x2
RIFF C x1
RIFF D x1
RIFF C x1
RIFF A x1
RIFF B x4
RIFF C x1
RIFF E x1
RIFF F x3
RIFF G x2
RIFF H x2
RIFF D x1
RIFF E x1
RIFF F x3
RIFF G x2
RIFF A x1
RIFF B x4
RIFF C x1 (then hold Am and fade out)
Comments