Httbff - Funkyfresh Chords & Tabs

 

Funkyfresh Chords & Tabs

Httbff Chords & Tabs

Version: 1 Type: Tab 0 ratings
1 star 2 stars 3 stars 4 stars 5 stars
comments

Funkyfresh Tab

   
i want to tell you, this is one of the jaymans favorites, it makes the day go smoother so have fun guys.



standard tunning, no drop d 


       A       E        B           D    
[ Tab from: http://www.guitartabs.cc/tabs/h/httbff/funkyfresh_tab.html ]
e--------------------------------------------------------------------
b------5-------------------------------------------------------------
g-----2--2-----4-6---------6-4-2/4---6-7-6---9-7---6/7/6-------------
d----4----4---2----2----4-----------7------7-----7-------7-----------
a---0------0-0-------0-2--2--------5----------------------7----------
e--------------------------------------------------------------------



       A      E     f#
 
e-------------------2-------------------------------------
b-----5-5-----------2---------------------------------------
g-----2-2---4-4-4---2------------------------------------------
d-----4-4---2-2-2---4------------------------------------------
a-----0-0---x-x-x---4------------------------------------------
e-----------0-0-0---2----------------------------------------
Comments