Howlin Wolf - Built For Comfort Chords & Tabs

 

Built For Comfort Chords & Tabs

Howlin Wolf Chords & Tabs

Version: 1 Type: Bass Tab 0 ratings
1 star 2 stars 3 stars 4 stars 5 stars
comments

Built For Comfort Bass Tab

Built For Comfort - Howlin' Wolf

  intro
G|----------------------7----------------------------|
D|---------------------5---7--56754-5-5---------4567-|
A|---------------------------------5---7-74567-------|
E|7777777777--5555555--------------------------------|
[ Tab from: http://www.guitartabs.cc/tabs/h/howlin_wolf/built_for_comfort_btab.html ]
  verse riff   chorus "because I'm built for comfort, I ain't built for speed"
G|------------|---------------------567---------------------------------7-7---------5-5---
D|---------5-5|---4-47-7567---4-47-7---7-75-5---5-57-75-5---5-5---6-69-9------4-47-7---7--
A|---4-47-7---|5-5---------5-5---------------7-7---------7-7---7-7---------5-5------------
E|5-5---------|---------------------------------------------------------------------------

------------6789------------------|
56754-5-5--7-------5-57--------5-5|
-----7---7--------7------4-47-7---|
Comments