Howie Day - Slow Down Acoustic Chords & Tabs

 

Slow Down Acoustic Chords & Tabs

Howie Day Chords & Tabs

Version: 1 Type: Tab 0 ratings
1 star 2 stars 3 stars 4 stars 5 stars
comments

Slow Down Acoustic Tab

Hey people!
this one is pretty simple. here are the basic tabs (100% correct) the way he performs it 
If you listen to the song you can figure out the slides, mutes, and strum patterns. by 
way howie is the man!
[ Tab from: http://www.guitartabs.cc/tabs/h/howie_day/slow_down_acoustic_tab.html ]
Intro
             Part I                                    Part II
E------------------------------/----------------------------------|
B------------------------------/----------------------------------|
G----8---4-------------------- /-------8---4---3------------------|
D----9---5---to bridge---------/-------9---5---4-------to bridge--|
A----9---5---------------------/-------9---5---4------------------|
E----7---3---------------------/-------7---3---2------------------|

"my dog, he's so craaazy..." = D
(you have to pick the very first chord: E, A, G, AD)

Bridge
E-----------------|
B-----------------|
G----3---2---1----|
D----4---3---2----|
A----4---3---2----|
E----2---1--------|


Chorus
E------------3------2------------|
B-----3------3------3------------|
G-----4------0------2------6-----|
D-----4------0-------------7-----|
A-----2------2-------------7-----|
E------------3-------------------|
Comments