Howie Day - Secret Chords & Tabs

 

Secret Chords & Tabs

Howie Day Chords & Tabs

Version: 1 Type: Chords 0 ratings
1 star 2 stars 3 stars 4 stars 5 stars
comments

Secret Chords

   
-------------------------------------------------------------------------------
			     Secret - Howie Day
-------------------------------------------------------------------------------
Tabbed by: Christopher Case
Website: www.northsouthband.com
Email: chris@northsouthband.com
Album: Australia

Tuning: Standard

Chords Used
   Em  F  G  C Am
e|-0---1--3--0--0------------------------------------------------------------|
B|-0---1--3--1--1------------------------------------------------------------|
G|-0---2--0--0--2------------------------------------------------------------|
D|-2---3--0--2--2------------------------------------------------------------|
A|-2---3--2--3--0------------------------------------------------------------|
E|-0---1--3------------------------------------------------------------------|
[ Tab from: http://www.guitartabs.cc/tabs/h/howie_day/secret_crd.html ]
Opening Riff
   Em          F              G           Am
e|----------------------------3-----3----------------------------------------|
B|-------------5-----8--8-----3-----3-----------5---5---5--------------------|
G|-4-----4-----5-----5--5-----4-----4-----5-----4---4---5--------------------|
D|-5-5-5-5-5-5-7-7-7-7--7-7-7-5-5-5-5-5-5-7-7-7-7-7-7-7-7--------------------|
A|---------------------------------------------------------------------------|
E|---------------------------------------------------------------------------|

(Play the opening riff over the verses)
It's your secret 
Why would you tell it to me? 
It's your lover on the television 
Scream why would you not try to be? 
Why would you not try to see? 

Em F G Am Em F G Am

It's about your blue hair 
I want to stay the night with you 
You got the beamiest face 
Car turns right I'm into you 
Right from wrong is not quite seen 
Right from wrong is it everything? 

C G              Am  F           
   It's your secret 
C G              Am  F      
    It's your secret
           C G Am F      
Tell it to me 
           C G Am F  
Tell it to me 

Don't want to step on the cracks 
The feeling is we didn't 
You got the beamiest face 
Car turns left I'm into you 
Taking sleepy pills for rest 
Anxious love gets so obsessed 

It's your love affair 
On a quiet sunday afternoon 
And your speedy pills 
You should know i'm into you 
Why would you not try to be? 
Why would you not try to see?


| /  slide up
| \  slide down
| h  hammer-on
| p  pull-off
| ~  vibrato
| +  harmonic
| x  Mute note
===============================================================================
Comments