Howie Day - Ghost Chords & Tabs

 

Ghost Chords & Tabs

Howie Day Chords & Tabs

Version: 3 Type: Tab 0 ratings
1 star 2 stars 3 stars 4 stars 5 stars
comments

Ghost Tab

   
-----------------------------------------------------------------------------
     "Ghost" - Howie Day
-----------------------------------------------------------------------------
Tabbed by: Peax
Email: eax@fukt.bth.se

Tuning: Standard (EADGBe)

Note:
Howie uses a delay-effect combined with looping to put his songs together live, the
intro sounds pretty plain and empty unless you add this effect since some notes are
just echos of previous ones.
I think he also uses an Ebow for one of the layers, but I don't have one so I will
not try to cover it here
[ Tab from: http://www.guitartabs.cc/tabs/h/howie_day/ghost_tab_ver_3.html ]
Intro (Loops above the main chord progression aswell):
e|--11---12-----|--11---7/12-----|
B|--------------|----------------|
G|--------------|----------------|
D|--------------|----------------|
A|--------------|----------------|
E|--------------|----------------|

Verse and Chorus:
     C#m  Aadd9 B9sus4  E  Esus4
e|----0----0------0-----0---0----|
B|----5----0------0-----0---0----|
G|----6----6------6-----1---1h2--|
D|----6----7------7-----2---2----|
A|--4-4----7------7-----2---2----|
E|-------4-5------7\0---0---0----|

And that's about it, just repeat the chords above and I think you will be all set.

| /  slide up
| \  slide down
| h  hammer-on
| p  pull-off
| ~  vibrato
| +  harmonic
| x  Mute note
=============================================================================
Comments