Howie Day - Collide Chords & Tabs

 

Collide Chords & Tabs

Howie Day Chords & Tabs

Version: 4 Type: Tab 0 ratings
1 star 2 stars 3 stars 4 stars 5 stars
comments

Collide Tab

   
-------------------------------------------------------------------------------
			     Collide - Howie Day
-------------------------------------------------------------------------------
Tabbed by: Ghost.s_shadow
Email:ghost.s_shadow@whoever.com

Tuning: Standard
Capo: 4th fret
Chords:
Em: x22000
G:  320003
C:  x32010
D:  xx0232

Intro: G  D  Em  C (4x)    G

            D        Em
The dawn is breaking
            C           G     
A light shining through
              D
You're barely waking
        Em            C
And I'm tangled up in you

Yeah

G  D  Em  C    G

          D             Em
I'm open, you're closed
                C         G
Where I follow, you'll go
        D                Em
I worry I won't see your face
C
Light up again

         G                  D
Even the best fall down sometimes
         Em                  C
Even the wrong words seem to rhyme
           G                   D
Out of the doubt that fills my mind
  Em
I somehow find
C            G
You and I collide

D  Em  C  G

          D        Em
I'm quiet you know
           C                G
You make a first impression
               D                  Em             C
I've found I'm scared to know I'm always on your mind


         G                  D
Even the best fall down sometimes
         Em              C
Even the stars refuse to shine
           G                D
Out of the back you fall in time
  Em
I somehow find
C            G
You and I collide
[ Tab from: http://www.guitartabs.cc/tabs/h/howie_day/collide_tab_ver_4.html ]
e|--------------------------------------------------------------------------|
B|--------------------------------------------------------------------------|
G|----------4---4-----------------------------------------------------------|
D|--------4-------4---------------------------------------------------------|
A|------6-----7-------------------------------------------------------------|
E|----7---------------------------------------------------------------------|
                          Don't stop here
e|--------------------------------------------------------------------------|
B|--------------------------------------------------------------------------|
G|----------4---4-----------------------------------------------------------|
D|--------4-------4---------------------------------------------------------|
A|------6-----7-------------------------------------------------------------|
E|----7---------------------------------------------------------------------|
                          I lost my place
e|--------------------------------------------------------------------------|
B|--------------------------------------------------------------------------|
G|----------4---4-----------------------------------------------------------|
D|--------4-------4---------------------------------------------------------|
A|------6-----7-------------------------------------------------------------|
E|----7---------------------------------------------------------------------|
                          I'm close behind

G  D  Em  C (2x)

         G                  D
Even the best fall down sometimes
         Em                  C
Even the wrong words seem to rhyme
           G                     D
Out of the doubt that fills your mind
    Em
You finally find
C            G    D
You and I collide

    Em
You finally find
C            G    D
You and I collide
    Em
You finally find
C            G    D
You and I collide


===============================================================================
This is my first tab!  It took me about, 2 hours...  Wow.  Well, if there's any
mistakes or comments, send a message to my email.
===============================================================================
Comments