Howie Day - Collide Chords & Tabs

 

Collide Chords & Tabs

Howie Day Chords & Tabs

Version: 3 Type: Tab 0 ratings
1 star 2 stars 3 stars 4 stars 5 stars
comments

Collide Tab

Hey guys! This is my first tab submission ever!  I am very excited. This is a modified
version of a tab I have recently seen on the internet... but because it is not the same..
it's my own!  Enjoy. You know how to strum it!


-------------------------------------------------------------------------------
			     Collide by Howie Day
-------------------------------------------------------------------------------
Tabbed by: Caroline Dikselis
Email: Chelsea300m@aol.com

Tuning: EADGBE (standard)

[ Tab from: http://www.guitartabs.cc/tabs/h/howie_day/collide_tab_ver_3.html ]
This is the intro and also the main parts of the actual song.  The bridge will be
coming later. If anybody has any ideas, please email me! Thanks! Enjoy!


e|-------7------6------4-------0------------------------------------------------|
B|-------7------7------4-------0------------------------------------------------|
G|-------8------8------4-------1------------------------------------------------|
D|-------9------8------6-------2------------------------------------------------|
A|-------9------6------6-------2------------------------------------------------|
E|---7---7---6--6---4--4---0---0------------------------------------------------|



Play this multiple times throughout the song and you will be set...
Comments