Howie Day - Collide Chords & Tabs

 

Collide Chords & Tabs

Howie Day Chords & Tabs

Version: 2 Type: Tab 2 ratings
1 star 2 stars 3 stars 4 stars 5 stars
comments

Collide Tab

   
Title: Collide
Artist: Howie Day
Album:  Stop All the World Now
Tuning: Standard (Capo 4th Fret)
Tabber: xwildxmonkeyx (xwildmonkeyx@gmail.com)

    G   F#  Bm  C
E |-x---x---x---x--|
B |-3---3---0---0--|
G |-0---0---0---0--|
D |-0---0---0---2--|
A |-2---0---2---3--|
E |-3---2---0---0--|
Intro 
       G      F#     Bm     C          G      F#     Bm     C
E |----x------x------x------x-x--------x------x------x------x-x-----x--|
B |----3------3------0------0-0--------3------3------0------0-0-----0--|
G |----0------0------0------0-0--------0------0------0------0-0-----0--|
D |----0------0------0------2-0h2-2p0--0------0------0------2-0h2-2p0--|
A |----2------0------2---3--3-3--------2------0------2---3--3-3-----3--|
E |3---3--2---2---0--0------0-0-----3--3---2--2---0--0------0-0-----0--|
Verse 1             
      G               F#                Bm                     C
E |---x---------------x-----------------x----------------------x---x-----x--|
B |---3---------------3-----------------0----------------------0---0-----0--|
G |---0---------------0-----------------0----------------------0---0-----0--|
D |---0---------------0-----------------0----------------------2---0h2—2p0--|
A |---2---------------0-----------------2-------------------3--3---3-----3--|
E |3--3------------2--2--------------0--0----------------------0---0-----0--|
     
      

G               F#                Bm                     C
E |---x---------------x-----------------x----------------------x---x-----x--|
B |---3---------------3-----------------0----------------------0---0-----0--|
G |---0---------------0-----------------0----------------------0---0-----0--|
D |---0---------------0-----------------0----------------------2---0h2—2p0--|
A |---2---------------0-----------------2-------------------3--3---3-----3--|
E |3--3------------2--2--------------0--0----------------------0---0-----0--|
     
      G               F#                Bm                     C
E |---x---------------x-----------------x----------------------x---x-----x--|
B |---3---------------3-----------------0----------------------0---0-----0--|
G |---0---------------0-----------------0----------------------0---0-----0--|
D |---0---------------0-----------------0----------------------2---0h2—2p0--|
A |---2---------------0-----------------2-------------------3--3---3-----3--|
E |3--3------------2--2--------------0--0----------------------0---0-----0--|
Verse 2
      G               F#                Bm                     C
E |---x---------------x-----------------x----------------------x---x-----x--|
B |---3---------------3-----------------0----------------------0---0-----0--|
G |---0---------------0-----------------0----------------------0---0-----0--|
D |---0---------------0-----------------0----------------------2---0h2—2p0--|
A |---2---------------0-----------------2-------------------3--3---3-----3--|
E |3--3------------2--2--------------0--0----------------------0---0-----0--|
[ Tab from: http://www.guitartabs.cc/tabs/h/howie_day/collide_tab_ver_2.html ]
      G               F#                Bm                     C
E |---x---------------x-----------------x----------------------x---x-----x--|
B |---3---------------3-----------------0----------------------0---0-----0--|
G |---0---------------0-----------------0----------------------0---0-----0--|
D |---0---------------0-----------------0----------------------2---0h2—2p0--|
A |---2---------------0-----------------2-------------------3--3---3-----3--|
E |3--3------------2--2--------------0--0----------------------0---0-----0--|
      Chorus
      G               F#                Bm                     C
E |---x---------------x-----------------x----------------------x---x-----x--|
B |---3---------------3-----------------0----------------------0---0-----0--|
G |---0---------------0-----------------0----------------------0---0-----0--|
D |---0---------------0-----------------0----------------------2---0h2—2p0--|
A |---2---------------0-----------------2-------------------3--3---3-----3--|
E |3--3------------2--2--------------0--0----------------------0---0-----0--|


      G               F#                Bm                     C
E |---x---------------x-----------------x----------------------x---x-----x--|
B |---3---------------3-----------------0----------------------0---0-----0--|
G |---0---------------0-----------------0----------------------0---0-----0--|
D |---0---------------0-----------------0----------------------2---0h2—2p0--|
A |---2---------------0-----------------2-------------------3--3---3-----3--|
E |3--3------------2--2--------------0--0----------------------0---0-----0--|
 

Bridge - play right after Chorus 2 (not perfect)
E |-------------------3--|
B |-------------------3--|
G |-------0--------0--0--|
D |-------------2-----2--|
A |---2------3--------2--|
E |3------------------0--|
                       Don't stop here
E |-------------------2---------------------------------2--|
B |-------------------3---------------------------------3--|
G |-------0--------0--2---------------------0--------0--2--|
D |-------------2-----0---------------------------2-----0--|
A |----2-----3--------0------------------2-----3--------0--|
E |-3-----------------0---------------3-----------------0--|


      G               F#                Bm                     C
E |---x---------------x-----------------x----------------------x---x-----x--|
B |---3---------------3-----------------0----------------------0---0-----0--|
G |---0---------------0-----------------0----------------------0---0-----0--|
D |---0---------------0-----------------0----------------------2---0h2—2p0--|
A |---2---------------0-----------------2-------------------3--3---3-----3--|
E |3--3------------2--2--------------0--0----------------------0---0-----0--|

      G               F#                Bm                     C
E |---x---------------x-----------------x----------------------x---x-----x--|
B |---3---------------3-----------------0----------------------0---0-----0--|
G |---0---------------0-----------------0----------------------0---0-----0--|
D |---0---------------0-----------------0----------------------2---0h2—2p0--|
A |---2---------------0-----------------2-------------------3--3---3-----3--|
E |3--3------------2--2--------------0--0----------------------0---0-----0--|


Outro
      G               F#                Bm                     C
E |---x---------------x-----------------x----------------------x---x-----x--|
B |---3---------------3-----------------0----------------------0---0-----0--|
G |---0---------------0-----------------0----------------------0---0-----0--|
D |---0---------------0-----------------0----------------------2---0h2—2p0--|
A |---2---------------0-----------------2-------------------3--3---3-----3--|
E |3--3------------2--2--------------0--0----------------------0---0-----0--|

      G               F#                Bm                     C          G
E |---x---------------x-----------------x----------------------x---x-----x--|
B |---3---------------3-----------------0----------------------0---0-----0--|
G |---0---------------0-----------------0----------------------0---0-----0--|
D |---0---------------0-----------------0----------------------2---0h2—2p0--|
A |---2---------------0-----------------2-------------------3--3---3-----3--|
E |3--3------------2--2--------------0--0----------------------0---0-----0--|

Comments