Howie Day - Collide Chords & Tabs

 

Collide Chords & Tabs

Howie Day Chords & Tabs

Version: 1 Type: Tab 4 ratings
1 star 2 stars 3 stars 4 stars 5 stars
comments

Collide Tab

   
#----------------------------------PLEASE NOTE---------------------------------#
#This file is the author's own work and represents their interpretation of the #
#song. You may only use this file for private study, scholarship, or research. #
#------------------------------------------------------------------------------#


Song: COLLIDE
Artist: Howie Day
Tabbed by: Louie A. Ebojo
From: ebbskyz@yahoo.com


Tuning: Original key is B. tune your guitar down a half-note step lower
i.e. Eb Ab Db Gb Bb Eb


Chords: EbAbDbGbBbEb

Cx32010legend:
C/Bx2x010h – hammer on
Amx02210
Am7x02010
FM7xx3210
G320003


Intro: C-C/B-Am7-FM7-; (2x)

        CC/BAm7 FM7
Eb|-----0-------0-------0-------0---0-----
Bb|-----1-------1-------1-------1---1-----
Gb|-----0-------0-------0-------2-0h2----- 2x (this is the pattern all
Db|-----2-------x-------2-------3---3-----     through out the song)
Ab|-----3-------2-------0-------x---x-----
Eb|-----x-------x-------x-------x---x-----


VERSE

Interlude: C-C/B-Am7-FM7-;
    Doot do do do…

VERSE

Bridge:
[ Tab from: http://www.guitartabs.cc/tabs/h/howie_day/collide_tab.html ]
            Am         FM7          G
Eb|---------------------------------x----
Bb|-----------1----------------1----0----
Gb|------------------------2--------0---- (pause)
Db|------2--------2----3------------0---- 
Ab|---0-----------------------------x----
Eb|---------------------------------3----

Don't stop here…


            Am         FM7          G
Eb|---------------------------------x----
Bb|-----------1----------------1----0----
Gb|------------------------2--------0---- (pause)
Db|------2--------2----3------------0---- 
Ab|---0-----------------------------x----
Eb|---------------------------------3----

I’ve lost my place…


            Am         FM7          G
Eb|---------------------------------x----
Bb|-----------1----------------1----0----
Gb|------------------------2--------0---- (pause)
Db|------2--------2----3------------0---- 
Ab|---0-----------------------------x----
Eb|---------------------------------3----

I’m close behind…


Interlude: C-C/B-Am7-FM7-; (2x)
    Doot do do do…



Outro: C-C/B-Am7-FM7-; (2x) C
Doot do do do…


Thank you nyk!
Comments