Howie Day - Collide Chords & Tabs

 

Collide Chords & Tabs

Howie Day Chords & Tabs

Version: 1 Type: Bass Tab 0 ratings
1 star 2 stars 3 stars 4 stars 5 stars
comments

Collide Bass Tab

   
The Bass comes in at about 0:41 with drums

G------------------------------|
D------------------------------|
A--------------------------3-3-|
E--3-3-----2-2-----0-0---------|
[ Tab from: http://www.guitartabs.cc/tabs/h/howie_day/collide_btab.html ]
play that over and over about 2:22 
from 2:22 untill 2:38 you pause
at 2:38 you start playing that same riff again untill the end of the song

G------------------------------|
D------------------------------|
A--------------------------3-3-|
E--3-3-----2-2-----0-0---------|

End on 
G----|
D----|
A----|
E-3~-|

this is a very easy song if u think its different or any thing
email me at XxMyChemicalRomance@msn.com
Comments